ISO-10303-21;
HEADER;
FILE_DESCRIPTION (( 'STEP AP203' ),
    '1' );
FILE_NAME ('372677.step',
    '2021-12-08T09:33:39',
    ( '' ),
    ( '' ),
    'SwSTEP 2.0',
    'SolidWorks 2019',
    '' );
FILE_SCHEMA (( 'CONFIG_CONTROL_DESIGN' ));
ENDSEC;

DATA;
#1 = EDGE_LOOP ( 'NONE', ( #180 ) ) ;
#2 = DIRECTION ( 'NONE',  ( 4.275831445896958607E-31, 1.000000000000000000, 1.224646799147353207E-16 ) ) ;
#3 = DIRECTION ( 'NONE',  ( -3.491481338843133355E-15, 1.224646799147353207E-16, -1.000000000000000000 ) ) ;
#4 = FACE_OUTER_BOUND ( 'NONE', #81, .T. ) ;
#5 = DIRECTION ( 'NONE',  ( -3.491481338843133355E-15, 1.224646799147353207E-16, -1.000000000000000000 ) ) ;
#6 = AXIS2_PLACEMENT_3D ( 'NONE', #38, #86, #98 ) ;
#7 = DIRECTION ( 'NONE',  ( 3.491481338843133355E-15, -1.224646799147353207E-16, 1.000000000000000000 ) ) ;
#8 = PRODUCT_DEFINITION ( 'UNKNOWN', '', #10, #16 ) ;
#9 = DIRECTION ( 'NONE',  ( 0.0000000000000000000, 1.000000000000000000, 0.0000000000000000000 ) ) ;
#10 = PRODUCT_DEFINITION_FORMATION_WITH_SPECIFIED_SOURCE ( 'ANY', '', #110, .NOT_KNOWN. ) ;
#11 = APPROVAL ( #172, 'UNSPECIFIED' ) ;
#12 =( NAMED_UNIT ( * ) PLANE_ANGLE_UNIT ( ) SI_UNIT ( $, .RADIAN. ) );
#13 = APPROVAL_DATE_TIME ( #174, #79 ) ;
#14 = CIRCLE ( 'NONE', #18, 3.999999999999995559 ) ;
#15 = PERSON_AND_ORGANIZATION ( #63, #181 ) ;
#16 = DESIGN_CONTEXT ( 'detailed design', #102, 'design' ) ;
#17 = APPLICATION_PROTOCOL_DEFINITION ( 'international standard', 'config_control_design', 1994, #170 ) ;
#18 = AXIS2_PLACEMENT_3D ( 'NONE', #152, #183, #116 ) ;
#19 = ORIENTED_EDGE ( 'NONE', *, *, #53, .T. ) ;
#20 = PRODUCT_DEFINITION_SHAPE ( 'NONE', 'NONE',  #8 ) ;
#21 = FACE_OUTER_BOUND ( 'NONE', #130, .T. ) ;
#22 = FACE_OUTER_BOUND ( 'NONE', #1, .T. ) ;
#23 = CARTESIAN_POINT ( 'NONE',  ( -1.282766372550154493E-30, 4.499338761231704644E-32, -3.673988912039226017E-16 ) ) ;
#24 = APPROVAL ( #58, 'UNSPECIFIED' ) ;
#25 = DIRECTION ( 'NONE',  ( -3.491481338843133355E-15, 1.224646799147353207E-16, -1.000000000000000000 ) ) ;
#26 = VERTEX_POINT ( 'NONE', #87 ) ;
#27 = AXIS2_PLACEMENT_3D ( 'NONE', #203, #83, #2 ) ;
#28 = DIRECTION ( 'NONE',  ( -3.491481338843133355E-15, 1.224646799147353207E-16, -1.000000000000000000 ) ) ;
#29 = FACE_OUTER_BOUND ( 'NONE', #193, .T. ) ;
#30 = AXIS2_PLACEMENT_3D ( 'NONE', #23, #145, #132 ) ;
#31 = CARTESIAN_POINT ( 'NONE',  ( 0.0000000000000000000, 0.0000000000000000000, 0.0000000000000000000 ) ) ;
#32 = DATE_AND_TIME ( #103, #51 ) ;
#33 = CC_DESIGN_PERSON_AND_ORGANIZATION_ASSIGNMENT ( #95, #78, ( #37 ) ) ;
#34 = DIRECTION ( 'NONE',  ( 0.0000000000000000000, 0.0000000000000000000, 1.000000000000000000 ) ) ;
#35 = PERSON_AND_ORGANIZATION ( #63, #181 ) ;
#36 = COORDINATED_UNIVERSAL_TIME_OFFSET ( 1, 0, .AHEAD. ) ;
#37 = SECURITY_CLASSIFICATION ( '', '', #141 ) ;
#38 = CARTESIAN_POINT ( 'NONE',  ( 1.326762908760390423E-13, 2.999519565323705910E-32, 38.00000000000000000 ) ) ;
#39 = FACE_OUTER_BOUND ( 'NONE', #126, .T. ) ;
#40 = ADVANCED_FACE ( 'NONE', ( #128 ), #113, .T. ) ;
#41 = DIRECTION ( 'NONE',  ( -4.275831445896958607E-31, -1.000000000000000000, -1.224646799147353207E-16 ) ) ;
#42 = CC_DESIGN_APPROVAL ( #11, ( #10 ) ) ;
#43 = CARTESIAN_POINT ( 'NONE',  ( 1.326762908760390423E-13, -4.653657836759941941E-15, 38.00000000000000000 ) ) ;
#44 = CIRCLE ( 'NONE', #119, 3.999999999999995559 ) ;
#45 = CARTESIAN_POINT ( 'NONE',  ( 2.793185071074506684E-13, -9.797174393178826052E-15, 80.00000000000000000 ) ) ;
#46 = CC_DESIGN_PERSON_AND_ORGANIZATION_ASSIGNMENT ( #35, #77, ( #10 ) ) ;
#47 = VERTEX_POINT ( 'NONE', #200 ) ;
#48 = APPROVAL_STATUS ( 'not_yet_approved' ) ;
#49 = PERSON_AND_ORGANIZATION_ROLE ( 'creator' ) ;
#50 = ORIENTED_EDGE ( 'NONE', *, *, #146, .F. ) ;
#51 = LOCAL_TIME ( 10, 33, 39.00000000000000000, #105 ) ;
#52 = DIRECTION ( 'NONE',  ( 4.275831445896958607E-31, 1.000000000000000000, 1.224646799147353207E-16 ) ) ;
#53 = EDGE_CURVE ( 'NONE', #26, #26, #189, .T. ) ;
#54 = EDGE_LOOP ( 'NONE', ( #191 ) ) ;
#55 = AXIS2_PLACEMENT_3D ( 'NONE', #192, #60, #99 ) ;
#56 = CC_DESIGN_PERSON_AND_ORGANIZATION_ASSIGNMENT ( #15, #108, ( #10 ) ) ;
#57 = APPLICATION_PROTOCOL_DEFINITION ( 'international standard', 'config_control_design', 1994, #102 ) ;
#58 = APPROVAL_STATUS ( 'not_yet_approved' ) ;
#59 =( GEOMETRIC_REPRESENTATION_CONTEXT ( 3 ) GLOBAL_UNCERTAINTY_ASSIGNED_CONTEXT ( ( #66 ) ) GLOBAL_UNIT_ASSIGNED_CONTEXT ( ( #122, #12, #75 ) ) REPRESENTATION_CONTEXT ( 'NONE', 'WORKASPACE' ) );
#60 = DIRECTION ( 'NONE',  ( -3.491481338843133355E-15, 1.224646799147353207E-16, -1.000000000000000000 ) ) ;
#61 = PLANE ( 'NONE',  #27 ) ;
#62 = CC_DESIGN_PERSON_AND_ORGANIZATION_ASSIGNMENT ( #94, #49, ( #8 ) ) ;
#63 = PERSON ( 'UNSPECIFIED', 'UNSPECIFIED', 'UNSPECIFIED', ('UNSPECIFIED'), ('UNSPECIFIED'), ('UNSPECIFIED') ) ;
#64 = APPROVAL_PERSON_ORGANIZATION ( #92, #79, #109 ) ;
#65 = ORIENTED_EDGE ( 'NONE', *, *, #169, .F. ) ;
#66 = UNCERTAINTY_MEASURE_WITH_UNIT (LENGTH_MEASURE( 1.000000000000000082E-05 ), #122, 'distance_accuracy_value', 'NONE');
#67 = EDGE_LOOP ( 'NONE', ( #50 ) ) ;
#68 = FACE_BOUND ( 'NONE', #101, .T. ) ;
#69 = ADVANCED_FACE ( 'NONE', ( #85, #163 ), #124, .T. ) ;
#70 = VERTEX_POINT ( 'NONE', #134 ) ;
#71 = DATE_TIME_ROLE ( 'classification_date' ) ;
#72 = CC_DESIGN_DATE_AND_TIME_ASSIGNMENT ( #111, #71, ( #37 ) ) ;
#73 = DIRECTION ( 'NONE',  ( -4.275831445896958607E-31, -1.000000000000000000, -1.224646799147353207E-16 ) ) ;
#74 = AXIS2_PLACEMENT_3D ( 'NONE', #45, #5, #9 ) ;
#75 =( NAMED_UNIT ( * ) SI_UNIT ( $, .STERADIAN. ) SOLID_ANGLE_UNIT ( ) );
#76 = APPROVAL_ROLE ( '' ) ;
#77 = PERSON_AND_ORGANIZATION_ROLE ( 'design_supplier' ) ;
#78 = PERSON_AND_ORGANIZATION_ROLE ( 'classification_officer' ) ;
#79 = APPROVAL ( #48, 'UNSPECIFIED' ) ;
#80 = CLOSED_SHELL ( 'NONE', ( #153, #69, #40 ) ) ;
#81 = EDGE_LOOP ( 'NONE', ( #19 ) ) ;
#82 = ADVANCED_FACE ( 'NONE', ( #39 ), #159, .F. ) ;
#83 = DIRECTION ( 'NONE',  ( -3.491481338843133355E-15, 1.224646799147353207E-16, -1.000000000000000000 ) ) ;
#84 = EDGE_LOOP ( 'NONE', ( #114 ) ) ;
#85 = FACE_OUTER_BOUND ( 'NONE', #84, .T. ) ;
#86 = DIRECTION ( 'NONE',  ( 3.491481338843133355E-15, -1.224646799147353207E-16, 1.000000000000000000 ) ) ;
#87 = CARTESIAN_POINT ( 'NONE',  ( 4.275662058086250086E-31, 3.999999999999990674, 1.224598284550174978E-16 ) ) ;
#88 = COORDINATED_UNIVERSAL_TIME_OFFSET ( 1, 0, .AHEAD. ) ;
#89 = LOCAL_TIME ( 10, 33, 39.00000000000000000, #138 ) ;
#90 = CARTESIAN_POINT ( 'NONE',  ( 2.793185071074506684E-13, 3.199999999999993072, 80.00000000000000000 ) ) ;
#91 = CC_DESIGN_DATE_AND_TIME_ASSIGNMENT ( #32, #171, ( #8 ) ) ;
#92 = PERSON_AND_ORGANIZATION ( #63, #181 ) ;
#93 = APPROVAL_DATE_TIME ( #173, #24 ) ;
#94 = PERSON_AND_ORGANIZATION ( #63, #181 ) ;
#95 = PERSON_AND_ORGANIZATION ( #63, #181 ) ;
#96 = ORIENTED_EDGE ( 'NONE', *, *, #146, .T. ) ;
#97 = APPROVAL_PERSON_ORGANIZATION ( #186, #11, #76 ) ;
#98 = DIRECTION ( 'NONE',  ( -4.275831445896958607E-31, -1.000000000000000000, -1.224646799147353207E-16 ) ) ;
#99 = DIRECTION ( 'NONE',  ( 0.0000000000000000000, 1.000000000000000000, 0.0000000000000000000 ) ) ;
#100 = EDGE_LOOP ( 'NONE', ( #158 ) ) ;
#101 = EDGE_LOOP ( 'NONE', ( #176 ) ) ;
#102 = APPLICATION_CONTEXT ( 'configuration controlled 3d designs of mechanical parts and assemblies' ) ;
#103 = CALENDAR_DATE ( 2021, 8, 12 ) ;
#104 = AXIS2_PLACEMENT_3D ( 'NONE', #197, #7, #73 ) ;
#105 = COORDINATED_UNIVERSAL_TIME_OFFSET ( 1, 0, .AHEAD. ) ;
#106 = APPROVAL_ROLE ( '' ) ;
#107 = CC_DESIGN_PERSON_AND_ORGANIZATION_ASSIGNMENT ( #185, #188, ( #110 ) ) ;
#108 = PERSON_AND_ORGANIZATION_ROLE ( 'creator' ) ;
#109 = APPROVAL_ROLE ( '' ) ;
#110 = PRODUCT ( '372677', '372677', '', ( #155 ) ) ;
#111 = DATE_AND_TIME ( #127, #150 ) ;
#112 = CARTESIAN_POINT ( 'NONE',  ( 1.326762908760390423E-13, 2.999519565323705910E-32, 38.00000000000000000 ) ) ;
#113 = PLANE ( 'NONE',  #129 ) ;
#114 = ORIENTED_EDGE ( 'NONE', *, *, #53, .F. ) ;
#115 = PLANE ( 'NONE',  #104 ) ;
#116 = DIRECTION ( 'NONE',  ( 0.0000000000000000000, 1.000000000000000000, 0.0000000000000000000 ) ) ;
#117 = CC_DESIGN_SECURITY_CLASSIFICATION ( #37, ( #10 ) ) ;
#118 = DIRECTION ( 'NONE',  ( -3.491481338843133355E-15, 1.224646799147353207E-16, -1.000000000000000000 ) ) ;
#119 = AXIS2_PLACEMENT_3D ( 'NONE', #43, #28, #136 ) ;
#120 = DATE_AND_TIME ( #202, #89 ) ;
#121 = ADVANCED_FACE ( 'NONE', ( #21 ), #61, .F. ) ;
#122 =( LENGTH_UNIT ( ) NAMED_UNIT ( * ) SI_UNIT ( .MILLI., .METRE. ) );
#123 = CIRCLE ( 'NONE', #182, 3.200000000000003286 ) ;
#124 = CYLINDRICAL_SURFACE ( 'NONE', #162, 3.999999999999993339 ) ;
#125 = EDGE_CURVE ( 'NONE', #70, #70, #201, .T. ) ;
#126 = EDGE_LOOP ( 'NONE', ( #96 ) ) ;
#127 = CALENDAR_DATE ( 2021, 8, 12 ) ;
#128 = FACE_OUTER_BOUND ( 'NONE', #100, .T. ) ;
#129 = AXIS2_PLACEMENT_3D ( 'NONE', #112, #179, #41 ) ;
#130 = EDGE_LOOP ( 'NONE', ( #65 ) ) ;
#131 = ADVANCED_FACE ( 'NONE', ( #161, #22 ), #190, .T. ) ;
#132 = DIRECTION ( 'NONE',  ( 4.275831445896958607E-31, 1.000000000000000000, 1.224646799147353207E-16 ) ) ;
#133 = AXIS2_PLACEMENT_3D ( 'NONE', #31, #34, #154 ) ;
#134 = CARTESIAN_POINT ( 'NONE',  ( 2.765253220363762122E-13, 3.999999999999993339, 79.20000000000001705 ) ) ;
#135 = LOCAL_TIME ( 10, 33, 39.00000000000000000, #36 ) ;
#136 = DIRECTION ( 'NONE',  ( 0.0000000000000000000, 1.000000000000000000, 0.0000000000000000000 ) ) ;
#137 = PRODUCT_RELATED_PRODUCT_CATEGORY ( 'detail', '', ( #110 ) ) ;
#138 = COORDINATED_UNIVERSAL_TIME_OFFSET ( 1, 0, .AHEAD. ) ;
#139 = CC_DESIGN_APPROVAL ( #79, ( #8 ) ) ;
#140 = SHAPE_DEFINITION_REPRESENTATION ( #20, #151 ) ;
#141 = SECURITY_CLASSIFICATION_LEVEL ( 'unclassified' ) ;
#142 = COORDINATED_UNIVERSAL_TIME_OFFSET ( 1, 0, .AHEAD. ) ;
#143 = PERSON_AND_ORGANIZATION ( #63, #181 ) ;
#144 = CLOSED_SHELL ( 'NONE', ( #82, #131, #167, #121 ) ) ;
#145 = DIRECTION ( 'NONE',  ( -3.491481338843133355E-15, 1.224646799147353207E-16, -1.000000000000000000 ) ) ;
#146 = EDGE_CURVE ( 'NONE', #168, #168, #44, .T. ) ;
#147 = CONICAL_SURFACE ( 'NONE', #74, 3.200000000000003286, 0.7853981633974597143 ) ;
#148 = CARTESIAN_POINT ( 'NONE',  ( 0.0000000000000000000, 0.0000000000000000000, 0.0000000000000000000 ) ) ;
#149 = DIRECTION ( 'NONE',  ( 0.0000000000000000000, 1.000000000000000000, 0.0000000000000000000 ) ) ;
#150 = LOCAL_TIME ( 10, 33, 39.00000000000000000, #142 ) ;
#151 = ADVANCED_BREP_SHAPE_REPRESENTATION ( '372677', ( #164, #165, #133 ), #59 ) ;
#152 = CARTESIAN_POINT ( 'NONE',  ( 1.326762908760390423E-13, -4.653657836759941941E-15, 38.00000000000000000 ) ) ;
#153 = ADVANCED_FACE ( 'NONE', ( #4 ), #115, .F. ) ;
#154 = DIRECTION ( 'NONE',  ( 1.000000000000000000, 0.0000000000000000000, 0.0000000000000000000 ) ) ;
#155 = MECHANICAL_CONTEXT ( 'NONE', #170, 'mechanical' ) ;
#156 = APPROVAL_DATE_TIME ( #120, #11 ) ;
#157 = CC_DESIGN_APPROVAL ( #24, ( #37 ) ) ;
#158 = ORIENTED_EDGE ( 'NONE', *, *, #160, .F. ) ;
#159 = PLANE ( 'NONE',  #6 ) ;
#160 = EDGE_CURVE ( 'NONE', #47, #47, #14, .T. ) ;
#161 = FACE_OUTER_BOUND ( 'NONE', #67, .T. ) ;
#162 = AXIS2_PLACEMENT_3D ( 'NONE', #177, #25, #52 ) ;
#163 = FACE_OUTER_BOUND ( 'NONE', #54, .T. ) ;
#164 = MANIFOLD_SOLID_BREP ( 'Corps-Déplacer/Copier1[1]', #144 ) ;
#165 = MANIFOLD_SOLID_BREP ( 'Corps-Déplacer/Copier1[2]', #80 ) ;
#166 = DIRECTION ( 'NONE',  ( 4.275831445896958607E-31, 1.000000000000000000, 1.224646799147353207E-16 ) ) ;
#167 = ADVANCED_FACE ( 'NONE', ( #29, #68 ), #147, .T. ) ;
#168 = VERTEX_POINT ( 'NONE', #196 ) ;
#169 = EDGE_CURVE ( 'NONE', #199, #199, #123, .T. ) ;
#170 = APPLICATION_CONTEXT ( 'configuration controlled 3d designs of mechanical parts and assemblies' ) ;
#171 = DATE_TIME_ROLE ( 'creation_date' ) ;
#172 = APPROVAL_STATUS ( 'not_yet_approved' ) ;
#173 = DATE_AND_TIME ( #175, #135 ) ;
#174 = DATE_AND_TIME ( #187, #184 ) ;
#175 = CALENDAR_DATE ( 2021, 8, 12 ) ;
#176 = ORIENTED_EDGE ( 'NONE', *, *, #169, .T. ) ;
#177 = CARTESIAN_POINT ( 'NONE',  ( 0.0000000000000000000, 0.0000000000000000000, 0.0000000000000000000 ) ) ;
#178 = APPROVAL_PERSON_ORGANIZATION ( #143, #24, #106 ) ;
#179 = DIRECTION ( 'NONE',  ( 3.491481338843133355E-15, -1.224646799147353207E-16, 1.000000000000000000 ) ) ;
#180 = ORIENTED_EDGE ( 'NONE', *, *, #125, .T. ) ;
#181 = ORGANIZATION ( 'UNSPECIFIED', 'UNSPECIFIED', '' ) ;
#182 = AXIS2_PLACEMENT_3D ( 'NONE', #198, #118, #149 ) ;
#183 = DIRECTION ( 'NONE',  ( -3.491481338843133355E-15, 1.224646799147353207E-16, -1.000000000000000000 ) ) ;
#184 = LOCAL_TIME ( 10, 33, 39.00000000000000000, #88 ) ;
#185 = PERSON_AND_ORGANIZATION ( #63, #181 ) ;
#186 = PERSON_AND_ORGANIZATION ( #63, #181 ) ;
#187 = CALENDAR_DATE ( 2021, 8, 12 ) ;
#188 = PERSON_AND_ORGANIZATION_ROLE ( 'design_owner' ) ;
#189 = CIRCLE ( 'NONE', #30, 3.999999999999990674 ) ;
#190 = CYLINDRICAL_SURFACE ( 'NONE', #195, 3.999999999999999112 ) ;
#191 = ORIENTED_EDGE ( 'NONE', *, *, #160, .T. ) ;
#192 = CARTESIAN_POINT ( 'NONE',  ( 2.765253220363762122E-13, -9.699202649247039195E-15, 79.20000000000001705 ) ) ;
#193 = EDGE_LOOP ( 'NONE', ( #194 ) ) ;
#194 = ORIENTED_EDGE ( 'NONE', *, *, #125, .F. ) ;
#195 = AXIS2_PLACEMENT_3D ( 'NONE', #148, #3, #166 ) ;
#196 = CARTESIAN_POINT ( 'NONE',  ( 1.326762908760390423E-13, 3.999999999999991562, 38.00000000000000000 ) ) ;
#197 = CARTESIAN_POINT ( 'NONE',  ( -6.413831862750772464E-31, 2.249669380615852322E-32, -1.836994456019613009E-16 ) ) ;
#198 = CARTESIAN_POINT ( 'NONE',  ( 2.793185071074506684E-13, -9.797174393178826052E-15, 80.00000000000000000 ) ) ;
#199 = VERTEX_POINT ( 'NONE', #90 ) ;
#200 = CARTESIAN_POINT ( 'NONE',  ( 1.326762908760390423E-13, 3.999999999999991562, 38.00000000000000000 ) ) ;
#201 = CIRCLE ( 'NONE', #55, 4.000000000000002665 ) ;
#202 = CALENDAR_DATE ( 2021, 8, 12 ) ;
#203 = CARTESIAN_POINT ( 'NONE',  ( 2.793185071074506684E-13, 2.399615652258959583E-32, 80.00000000000000000 ) ) ;
ENDSEC;
END-ISO-10303-21;
