ISO-10303-21;
HEADER;
FILE_DESCRIPTION (( 'STEP AP203' ),
    '1' );
FILE_NAME ('372676.step',
    '2021-12-08T09:33:39',
    ( '' ),
    ( '' ),
    'SwSTEP 2.0',
    'SolidWorks 2019',
    '' );
FILE_SCHEMA (( 'CONFIG_CONTROL_DESIGN' ));
ENDSEC;

DATA;
#1 = DIRECTION ( 'NONE',  ( -3.491481338843133355E-15, 1.224646799147353207E-16, -1.000000000000000000 ) ) ;
#2 = DATE_AND_TIME ( #189, #161 ) ;
#3 = CC_DESIGN_PERSON_AND_ORGANIZATION_ASSIGNMENT ( #199, #63, ( #20 ) ) ;
#4 = EDGE_LOOP ( 'NONE', ( #113 ) ) ;
#5 = CALENDAR_DATE ( 2021, 8, 12 ) ;
#6 = ADVANCED_FACE ( 'NONE', ( #101 ), #143, .F. ) ;
#7 = AXIS2_PLACEMENT_3D ( 'NONE', #175, #168, #157 ) ;
#8 = AXIS2_PLACEMENT_3D ( 'NONE', #30, #154, #85 ) ;
#9 = ADVANCED_FACE ( 'NONE', ( #132 ), #190, .F. ) ;
#10 = DIRECTION ( 'NONE',  ( 0.0000000000000000000, 1.000000000000000000, 0.0000000000000000000 ) ) ;
#11 = DIRECTION ( 'NONE',  ( -3.491481338843133355E-15, 1.224646799147353207E-16, -1.000000000000000000 ) ) ;
#12 = PLANE ( 'NONE',  #110 ) ;
#13 = ORGANIZATION ( 'UNSPECIFIED', 'UNSPECIFIED', '' ) ;
#14 = EDGE_LOOP ( 'NONE', ( #119 ) ) ;
#15 = APPROVAL_ROLE ( '' ) ;
#16 = CARTESIAN_POINT ( 'NONE',  ( -1.282766372550154493E-30, 4.499338761231704644E-32, -3.673988912039226017E-16 ) ) ;
#17 = CC_DESIGN_PERSON_AND_ORGANIZATION_ASSIGNMENT ( #99, #117, ( #136 ) ) ;
#18 = CARTESIAN_POINT ( 'NONE',  ( 1.152188841818234133E-13, 2.999519565323705910E-32, 33.00000000000000000 ) ) ;
#19 = EDGE_LOOP ( 'NONE', ( #148 ) ) ;
#20 = PRODUCT_DEFINITION_FORMATION_WITH_SPECIFIED_SOURCE ( 'ANY', '', #203, .NOT_KNOWN. ) ;
#21 = VERTEX_POINT ( 'NONE', #49 ) ;
#22 = CARTESIAN_POINT ( 'NONE',  ( 1.152188841818234133E-13, -4.041334437186266200E-15, 33.00000000000000000 ) ) ;
#23 = APPROVAL_DATE_TIME ( #160, #32 ) ;
#24 = CC_DESIGN_DATE_AND_TIME_ASSIGNMENT ( #153, #124, ( #27 ) ) ;
#25 = LOCAL_TIME ( 10, 33, 39.00000000000000000, #169 ) ;
#26 = MANIFOLD_SOLID_BREP ( 'Corps-Déplacer/Copier1[1]', #93 ) ;
#27 = PRODUCT_DEFINITION ( 'UNKNOWN', '', #20, #123 ) ;
#28 = CALENDAR_DATE ( 2021, 8, 12 ) ;
#29 = APPLICATION_CONTEXT ( 'configuration controlled 3d designs of mechanical parts and assemblies' ) ;
#30 = CARTESIAN_POINT ( 'NONE',  ( 2.793185071074506684E-13, -9.797174393178826052E-15, 80.00000000000000000 ) ) ;
#31 = EDGE_LOOP ( 'NONE', ( #61 ) ) ;
#32 = APPROVAL ( #174, 'UNSPECIFIED' ) ;
#33 = DIRECTION ( 'NONE',  ( 0.0000000000000000000, 1.000000000000000000, 0.0000000000000000000 ) ) ;
#34 = AXIS2_PLACEMENT_3D ( 'NONE', #158, #159, #86 ) ;
#35 = DATE_TIME_ROLE ( 'classification_date' ) ;
#36 = VERTEX_POINT ( 'NONE', #163 ) ;
#37 = EDGE_CURVE ( 'NONE', #131, #131, #183, .T. ) ;
#38 = COORDINATED_UNIVERSAL_TIME_OFFSET ( 1, 0, .AHEAD. ) ;
#39 = APPROVAL_STATUS ( 'not_yet_approved' ) ;
#40 = CC_DESIGN_APPROVAL ( #32, ( #136 ) ) ;
#41 = CC_DESIGN_DATE_AND_TIME_ASSIGNMENT ( #2, #35, ( #136 ) ) ;
#42 = DIRECTION ( 'NONE',  ( 4.275831445896958607E-31, 1.000000000000000000, 1.224646799147353207E-16 ) ) ;
#43 = PERSON_AND_ORGANIZATION_ROLE ( 'design_supplier' ) ;
#44 = CARTESIAN_POINT ( 'NONE',  ( 1.152188841818234133E-13, 3.999999999999991562, 33.00000000000000000 ) ) ;
#45 = APPROVAL_PERSON_ORGANIZATION ( #177, #32, #15 ) ;
#46 = DIRECTION ( 'NONE',  ( -3.491481338843133355E-15, 1.224646799147353207E-16, -1.000000000000000000 ) ) ;
#47 = EDGE_LOOP ( 'NONE', ( #83 ) ) ;
#48 = COORDINATED_UNIVERSAL_TIME_OFFSET ( 1, 0, .AHEAD. ) ;
#49 = CARTESIAN_POINT ( 'NONE',  ( 1.152188841818234133E-13, 3.999999999999991562, 33.00000000000000000 ) ) ;
#50 = CC_DESIGN_PERSON_AND_ORGANIZATION_ASSIGNMENT ( #77, #58, ( #27 ) ) ;
#51 = VERTEX_POINT ( 'NONE', #134 ) ;
#52 = ADVANCED_FACE ( 'NONE', ( #105, #162 ), #88, .T. ) ;
#53 = LOCAL_TIME ( 10, 33, 39.00000000000000000, #107 ) ;
#54 = ADVANCED_FACE ( 'NONE', ( #62 ), #170, .T. ) ;
#55 = APPLICATION_PROTOCOL_DEFINITION ( 'international standard', 'config_control_design', 1994, #29 ) ;
#56 = CIRCLE ( 'NONE', #201, 3.999999999999990674 ) ;
#57 = PERSON_AND_ORGANIZATION ( #91, #13 ) ;
#58 = PERSON_AND_ORGANIZATION_ROLE ( 'creator' ) ;
#59 = CARTESIAN_POINT ( 'NONE',  ( -6.413831862750772464E-31, 2.249669380615852322E-32, -1.836994456019613009E-16 ) ) ;
#60 = APPROVAL_DATE_TIME ( #139, #81 ) ;
#61 = ORIENTED_EDGE ( 'NONE', *, *, #188, .F. ) ;
#62 = FACE_OUTER_BOUND ( 'NONE', #146, .T. ) ;
#63 = PERSON_AND_ORGANIZATION_ROLE ( 'creator' ) ;
#64 = DIRECTION ( 'NONE',  ( -4.275831445896958607E-31, -1.000000000000000000, -1.224646799147353207E-16 ) ) ;
#65 = CARTESIAN_POINT ( 'NONE',  ( 2.765253220363762122E-13, -9.699202649247039195E-15, 79.20000000000001705 ) ) ;
#66 = SECURITY_CLASSIFICATION_LEVEL ( 'unclassified' ) ;
#67 = DIRECTION ( 'NONE',  ( -4.275831445896958607E-31, -1.000000000000000000, -1.224646799147353207E-16 ) ) ;
#68 = ADVANCED_FACE ( 'NONE', ( #198, #97 ), #84, .T. ) ;
#69 = AXIS2_PLACEMENT_3D ( 'NONE', #18, #176, #67 ) ;
#70 = AXIS2_PLACEMENT_3D ( 'NONE', #22, #180, #33 ) ;
#71 = DIRECTION ( 'NONE',  ( 1.000000000000000000, 0.0000000000000000000, 0.0000000000000000000 ) ) ;
#72 = CC_DESIGN_APPROVAL ( #172, ( #27 ) ) ;
#73 = UNCERTAINTY_MEASURE_WITH_UNIT (LENGTH_MEASURE( 1.000000000000000082E-05 ), #120, 'distance_accuracy_value', 'NONE');
#74 = ADVANCED_FACE ( 'NONE', ( #156 ), #12, .F. ) ;
#75 = MECHANICAL_CONTEXT ( 'NONE', #195, 'mechanical' ) ;
#76 = CARTESIAN_POINT ( 'NONE',  ( 4.275662058086250086E-31, 3.999999999999990674, 1.224598284550174978E-16 ) ) ;
#77 = PERSON_AND_ORGANIZATION ( #91, #13 ) ;
#78 = CARTESIAN_POINT ( 'NONE',  ( 1.152188841818234133E-13, -4.041334437186266200E-15, 33.00000000000000000 ) ) ;
#79 = EDGE_LOOP ( 'NONE', ( #173 ) ) ;
#80 = DIRECTION ( 'NONE',  ( 0.0000000000000000000, 0.0000000000000000000, 1.000000000000000000 ) ) ;
#81 = APPROVAL ( #39, 'UNSPECIFIED' ) ;
#82 = DIRECTION ( 'NONE',  ( -3.491481338843133355E-15, 1.224646799147353207E-16, -1.000000000000000000 ) ) ;
#83 = ORIENTED_EDGE ( 'NONE', *, *, #106, .T. ) ;
#84 = CYLINDRICAL_SURFACE ( 'NONE', #7, 3.999999999999999112 ) ;
#85 = DIRECTION ( 'NONE',  ( 0.0000000000000000000, 1.000000000000000000, 0.0000000000000000000 ) ) ;
#86 = DIRECTION ( 'NONE',  ( 4.275831445896958607E-31, 1.000000000000000000, 1.224646799147353207E-16 ) ) ;
#87 = AXIS2_PLACEMENT_3D ( 'NONE', #184, #80, #71 ) ;
#88 = CYLINDRICAL_SURFACE ( 'NONE', #151, 3.999999999999993339 ) ;
#89 =( NAMED_UNIT ( * ) SI_UNIT ( $, .STERADIAN. ) SOLID_ANGLE_UNIT ( ) );
#90 = APPROVAL_PERSON_ORGANIZATION ( #57, #172, #197 ) ;
#91 = PERSON ( 'UNSPECIFIED', 'UNSPECIFIED', 'UNSPECIFIED', ('UNSPECIFIED'), ('UNSPECIFIED'), ('UNSPECIFIED') ) ;
#92 = PERSON_AND_ORGANIZATION_ROLE ( 'design_owner' ) ;
#93 = CLOSED_SHELL ( 'NONE', ( #6, #68, #118, #9 ) ) ;
#94 = CALENDAR_DATE ( 2021, 8, 12 ) ;
#95 = FACE_BOUND ( 'NONE', #14, .T. ) ;
#96 = ORIENTED_EDGE ( 'NONE', *, *, #188, .T. ) ;
#97 = FACE_OUTER_BOUND ( 'NONE', #145, .T. ) ;
#98 = ORIENTED_EDGE ( 'NONE', *, *, #133, .F. ) ;
#99 = PERSON_AND_ORGANIZATION ( #91, #13 ) ;
#100 = AXIS2_PLACEMENT_3D ( 'NONE', #171, #127, #142 ) ;
#101 = FACE_OUTER_BOUND ( 'NONE', #19, .T. ) ;
#102 = MANIFOLD_SOLID_BREP ( 'Corps-Déplacer/Copier1[2]', #104 ) ;
#103 = EDGE_LOOP ( 'NONE', ( #98 ) ) ;
#104 = CLOSED_SHELL ( 'NONE', ( #74, #52, #54 ) ) ;
#105 = FACE_OUTER_BOUND ( 'NONE', #4, .T. ) ;
#106 = EDGE_CURVE ( 'NONE', #115, #115, #56, .T. ) ;
#107 = COORDINATED_UNIVERSAL_TIME_OFFSET ( 1, 0, .AHEAD. ) ;
#108 = PERSON_AND_ORGANIZATION ( #91, #13 ) ;
#109 = APPROVAL_ROLE ( '' ) ;
#110 = AXIS2_PLACEMENT_3D ( 'NONE', #59, #155, #64 ) ;
#111 = CC_DESIGN_APPROVAL ( #81, ( #20 ) ) ;
#112 = APPROVAL_DATE_TIME ( #182, #172 ) ;
#113 = ORIENTED_EDGE ( 'NONE', *, *, #106, .F. ) ;
#114 = LOCAL_TIME ( 10, 33, 39.00000000000000000, #38 ) ;
#115 = VERTEX_POINT ( 'NONE', #76 ) ;
#116 = ORIENTED_EDGE ( 'NONE', *, *, #37, .F. ) ;
#117 = PERSON_AND_ORGANIZATION_ROLE ( 'classification_officer' ) ;
#118 = ADVANCED_FACE ( 'NONE', ( #186, #95 ), #141, .T. ) ;
#119 = ORIENTED_EDGE ( 'NONE', *, *, #164, .T. ) ;
#120 =( LENGTH_UNIT ( ) NAMED_UNIT ( * ) SI_UNIT ( .MILLI., .METRE. ) );
#121 =( NAMED_UNIT ( * ) PLANE_ANGLE_UNIT ( ) SI_UNIT ( $, .RADIAN. ) );
#122 = AXIS2_PLACEMENT_3D ( 'NONE', #65, #82, #128 ) ;
#123 = DESIGN_CONTEXT ( 'detailed design', #29, 'design' ) ;
#124 = DATE_TIME_ROLE ( 'creation_date' ) ;
#125 = DIRECTION ( 'NONE',  ( 4.275831445896958607E-31, 1.000000000000000000, 1.224646799147353207E-16 ) ) ;
#126 = CC_DESIGN_PERSON_AND_ORGANIZATION_ASSIGNMENT ( #149, #43, ( #20 ) ) ;
#127 = DIRECTION ( 'NONE',  ( 3.491481338843133355E-15, -1.224646799147353207E-16, 1.000000000000000000 ) ) ;
#128 = DIRECTION ( 'NONE',  ( 0.0000000000000000000, 1.000000000000000000, 0.0000000000000000000 ) ) ;
#129 = EDGE_LOOP ( 'NONE', ( #202 ) ) ;
#130 = CC_DESIGN_PERSON_AND_ORGANIZATION_ASSIGNMENT ( #108, #92, ( #203 ) ) ;
#131 = VERTEX_POINT ( 'NONE', #44 ) ;
#132 = FACE_OUTER_BOUND ( 'NONE', #79, .T. ) ;
#133 = EDGE_CURVE ( 'NONE', #21, #21, #147, .T. ) ;
#134 = CARTESIAN_POINT ( 'NONE',  ( 2.765253220363762122E-13, 3.999999999999993339, 79.20000000000001705 ) ) ;
#135 = AXIS2_PLACEMENT_3D ( 'NONE', #78, #140, #200 ) ;
#136 = SECURITY_CLASSIFICATION ( '', '', #66 ) ;
#137 = APPLICATION_PROTOCOL_DEFINITION ( 'international standard', 'config_control_design', 1994, #195 ) ;
#138 = APPROVAL_STATUS ( 'not_yet_approved' ) ;
#139 = DATE_AND_TIME ( #94, #25 ) ;
#140 = DIRECTION ( 'NONE',  ( -3.491481338843133355E-15, 1.224646799147353207E-16, -1.000000000000000000 ) ) ;
#141 = CONICAL_SURFACE ( 'NONE', #8, 3.200000000000003286, 0.7853981633974597143 ) ;
#142 = DIRECTION ( 'NONE',  ( -4.275831445896958607E-31, -1.000000000000000000, -1.224646799147353207E-16 ) ) ;
#143 = PLANE ( 'NONE',  #69 ) ;
#144 = CARTESIAN_POINT ( 'NONE',  ( 2.793185071074506684E-13, -9.797174393178826052E-15, 80.00000000000000000 ) ) ;
#145 = EDGE_LOOP ( 'NONE', ( #96 ) ) ;
#146 = EDGE_LOOP ( 'NONE', ( #116 ) ) ;
#147 = CIRCLE ( 'NONE', #135, 3.999999999999995559 ) ;
#148 = ORIENTED_EDGE ( 'NONE', *, *, #133, .T. ) ;
#149 = PERSON_AND_ORGANIZATION ( #91, #13 ) ;
#150 = ADVANCED_BREP_SHAPE_REPRESENTATION ( '372676', ( #26, #102, #87 ), #196 ) ;
#151 = AXIS2_PLACEMENT_3D ( 'NONE', #193, #46, #42 ) ;
#152 = CIRCLE ( 'NONE', #181, 3.200000000000003286 ) ;
#153 = DATE_AND_TIME ( #28, #114 ) ;
#154 = DIRECTION ( 'NONE',  ( -3.491481338843133355E-15, 1.224646799147353207E-16, -1.000000000000000000 ) ) ;
#155 = DIRECTION ( 'NONE',  ( 3.491481338843133355E-15, -1.224646799147353207E-16, 1.000000000000000000 ) ) ;
#156 = FACE_OUTER_BOUND ( 'NONE', #47, .T. ) ;
#157 = DIRECTION ( 'NONE',  ( 4.275831445896958607E-31, 1.000000000000000000, 1.224646799147353207E-16 ) ) ;
#158 = CARTESIAN_POINT ( 'NONE',  ( 2.793185071074506684E-13, 2.399615652258959583E-32, 80.00000000000000000 ) ) ;
#159 = DIRECTION ( 'NONE',  ( -3.491481338843133355E-15, 1.224646799147353207E-16, -1.000000000000000000 ) ) ;
#160 = DATE_AND_TIME ( #5, #165 ) ;
#161 = LOCAL_TIME ( 10, 33, 39.00000000000000000, #191 ) ;
#162 = FACE_OUTER_BOUND ( 'NONE', #129, .T. ) ;
#163 = CARTESIAN_POINT ( 'NONE',  ( 2.793185071074506684E-13, 3.199999999999993072, 80.00000000000000000 ) ) ;
#164 = EDGE_CURVE ( 'NONE', #36, #36, #152, .T. ) ;
#165 = LOCAL_TIME ( 10, 33, 39.00000000000000000, #48 ) ;
#166 = CIRCLE ( 'NONE', #122, 4.000000000000002665 ) ;
#167 = CALENDAR_DATE ( 2021, 8, 12 ) ;
#168 = DIRECTION ( 'NONE',  ( -3.491481338843133355E-15, 1.224646799147353207E-16, -1.000000000000000000 ) ) ;
#169 = COORDINATED_UNIVERSAL_TIME_OFFSET ( 1, 0, .AHEAD. ) ;
#170 = PLANE ( 'NONE',  #100 ) ;
#171 = CARTESIAN_POINT ( 'NONE',  ( 1.152188841818234133E-13, 2.999519565323705910E-32, 33.00000000000000000 ) ) ;
#172 = APPROVAL ( #138, 'UNSPECIFIED' ) ;
#173 = ORIENTED_EDGE ( 'NONE', *, *, #164, .F. ) ;
#174 = APPROVAL_STATUS ( 'not_yet_approved' ) ;
#175 = CARTESIAN_POINT ( 'NONE',  ( 0.0000000000000000000, 0.0000000000000000000, 0.0000000000000000000 ) ) ;
#176 = DIRECTION ( 'NONE',  ( 3.491481338843133355E-15, -1.224646799147353207E-16, 1.000000000000000000 ) ) ;
#177 = PERSON_AND_ORGANIZATION ( #91, #13 ) ;
#178 = SHAPE_DEFINITION_REPRESENTATION ( #187, #150 ) ;
#179 = PRODUCT_RELATED_PRODUCT_CATEGORY ( 'detail', '', ( #203 ) ) ;
#180 = DIRECTION ( 'NONE',  ( -3.491481338843133355E-15, 1.224646799147353207E-16, -1.000000000000000000 ) ) ;
#181 = AXIS2_PLACEMENT_3D ( 'NONE', #144, #1, #10 ) ;
#182 = DATE_AND_TIME ( #167, #53 ) ;
#183 = CIRCLE ( 'NONE', #70, 3.999999999999995559 ) ;
#184 = CARTESIAN_POINT ( 'NONE',  ( 0.0000000000000000000, 0.0000000000000000000, 0.0000000000000000000 ) ) ;
#185 = PERSON_AND_ORGANIZATION ( #91, #13 ) ;
#186 = FACE_OUTER_BOUND ( 'NONE', #31, .T. ) ;
#187 = PRODUCT_DEFINITION_SHAPE ( 'NONE', 'NONE',  #27 ) ;
#188 = EDGE_CURVE ( 'NONE', #51, #51, #166, .T. ) ;
#189 = CALENDAR_DATE ( 2021, 8, 12 ) ;
#190 = PLANE ( 'NONE',  #34 ) ;
#191 = COORDINATED_UNIVERSAL_TIME_OFFSET ( 1, 0, .AHEAD. ) ;
#192 = CC_DESIGN_SECURITY_CLASSIFICATION ( #136, ( #20 ) ) ;
#193 = CARTESIAN_POINT ( 'NONE',  ( 0.0000000000000000000, 0.0000000000000000000, 0.0000000000000000000 ) ) ;
#194 = APPROVAL_PERSON_ORGANIZATION ( #185, #81, #109 ) ;
#195 = APPLICATION_CONTEXT ( 'configuration controlled 3d designs of mechanical parts and assemblies' ) ;
#196 =( GEOMETRIC_REPRESENTATION_CONTEXT ( 3 ) GLOBAL_UNCERTAINTY_ASSIGNED_CONTEXT ( ( #73 ) ) GLOBAL_UNIT_ASSIGNED_CONTEXT ( ( #120, #121, #89 ) ) REPRESENTATION_CONTEXT ( 'NONE', 'WORKASPACE' ) );
#197 = APPROVAL_ROLE ( '' ) ;
#198 = FACE_OUTER_BOUND ( 'NONE', #103, .T. ) ;
#199 = PERSON_AND_ORGANIZATION ( #91, #13 ) ;
#200 = DIRECTION ( 'NONE',  ( 0.0000000000000000000, 1.000000000000000000, 0.0000000000000000000 ) ) ;
#201 = AXIS2_PLACEMENT_3D ( 'NONE', #16, #11, #125 ) ;
#202 = ORIENTED_EDGE ( 'NONE', *, *, #37, .T. ) ;
#203 = PRODUCT ( '372676', '372676', '', ( #75 ) ) ;
ENDSEC;
END-ISO-10303-21;
