ISO-10303-21;
HEADER;
FILE_DESCRIPTION (( 'STEP AP203' ),
    '1' );
FILE_NAME ('372675.step',
    '2021-12-08T09:33:38',
    ( '' ),
    ( '' ),
    'SwSTEP 2.0',
    'SolidWorks 2019',
    '' );
FILE_SCHEMA (( 'CONFIG_CONTROL_DESIGN' ));
ENDSEC;

DATA;
#1 = CALENDAR_DATE ( 2021, 8, 12 ) ;
#2 = CARTESIAN_POINT ( 'NONE',  ( 2.765253220363762122E-13, 3.999999999999993339, 79.20000000000001705 ) ) ;
#3 = DATE_AND_TIME ( #1, #68 ) ;
#4 = ORGANIZATION ( 'UNSPECIFIED', 'UNSPECIFIED', '' ) ;
#5 = PERSON_AND_ORGANIZATION_ROLE ( 'classification_officer' ) ;
#6 = CC_DESIGN_PERSON_AND_ORGANIZATION_ASSIGNMENT ( #161, #45, ( #134 ) ) ;
#7 = CARTESIAN_POINT ( 'NONE',  ( 8.728703347107833388E-14, 2.999519565323706458E-32, 25.00000000000000000 ) ) ;
#8 = DIRECTION ( 'NONE',  ( 0.0000000000000000000, 1.000000000000000000, 0.0000000000000000000 ) ) ;
#9 = CC_DESIGN_PERSON_AND_ORGANIZATION_ASSIGNMENT ( #64, #174, ( #186 ) ) ;
#10 = ORIENTED_EDGE ( 'NONE', *, *, #136, .F. ) ;
#11 = LOCAL_TIME ( 10, 33, 38.00000000000000000, #187 ) ;
#12 = MECHANICAL_CONTEXT ( 'NONE', #51, 'mechanical' ) ;
#13 = COORDINATED_UNIVERSAL_TIME_OFFSET ( 1, 0, .AHEAD. ) ;
#14 = APPROVAL_ROLE ( '' ) ;
#15 = DIRECTION ( 'NONE',  ( -3.491481338843133355E-15, 1.224646799147353207E-16, -1.000000000000000000 ) ) ;
#16 = APPROVAL_PERSON_ORGANIZATION ( #43, #24, #171 ) ;
#17 =( NAMED_UNIT ( * ) SI_UNIT ( $, .STERADIAN. ) SOLID_ANGLE_UNIT ( ) );
#18 = APPLICATION_PROTOCOL_DEFINITION ( 'international standard', 'config_control_design', 1994, #157 ) ;
#19 = CIRCLE ( 'NONE', #137, 3.200000000000003286 ) ;
#20 = DIRECTION ( 'NONE',  ( 0.0000000000000000000, 1.000000000000000000, 0.0000000000000000000 ) ) ;
#21 = APPROVAL ( #60, 'UNSPECIFIED' ) ;
#22 = DIRECTION ( 'NONE',  ( 4.275831445896958607E-31, 1.000000000000000000, 1.224646799147353207E-16 ) ) ;
#23 = EDGE_LOOP ( 'NONE', ( #120 ) ) ;
#24 = APPROVAL ( #203, 'UNSPECIFIED' ) ;
#25 = APPROVAL_DATE_TIME ( #111, #24 ) ;
#26 = APPROVAL_PERSON_ORGANIZATION ( #114, #21, #14 ) ;
#27 = CC_DESIGN_SECURITY_CLASSIFICATION ( #31, ( #186 ) ) ;
#28 = VERTEX_POINT ( 'NONE', #145 ) ;
#29 = SECURITY_CLASSIFICATION_LEVEL ( 'unclassified' ) ;
#30 = CIRCLE ( 'NONE', #149, 4.000000000000002665 ) ;
#31 = SECURITY_CLASSIFICATION ( '', '', #29 ) ;
#32 = ORIENTED_EDGE ( 'NONE', *, *, #95, .F. ) ;
#33 = AXIS2_PLACEMENT_3D ( 'NONE', #107, #15, #44 ) ;
#34 = EDGE_CURVE ( 'NONE', #40, #40, #19, .T. ) ;
#35 = FACE_OUTER_BOUND ( 'NONE', #78, .T. ) ;
#36 = CYLINDRICAL_SURFACE ( 'NONE', #192, 3.999999999999993339 ) ;
#37 = DIRECTION ( 'NONE',  ( -3.491481338843133355E-15, 1.224646799147353207E-16, -1.000000000000000000 ) ) ;
#38 = DIRECTION ( 'NONE',  ( -3.491481338843133355E-15, 1.224646799147353207E-16, -1.000000000000000000 ) ) ;
#39 = APPLICATION_PROTOCOL_DEFINITION ( 'international standard', 'config_control_design', 1994, #51 ) ;
#40 = VERTEX_POINT ( 'NONE', #189 ) ;
#41 = AXIS2_PLACEMENT_3D ( 'NONE', #65, #132, #86 ) ;
#42 = DATE_TIME_ROLE ( 'creation_date' ) ;
#43 = PERSON_AND_ORGANIZATION ( #196, #4 ) ;
#44 = DIRECTION ( 'NONE',  ( 0.0000000000000000000, 1.000000000000000000, 0.0000000000000000000 ) ) ;
#45 = PERSON_AND_ORGANIZATION_ROLE ( 'design_owner' ) ;
#46 = AXIS2_PLACEMENT_3D ( 'NONE', #165, #108, #143 ) ;
#47 = ORIENTED_EDGE ( 'NONE', *, *, #81, .F. ) ;
#48 = COORDINATED_UNIVERSAL_TIME_OFFSET ( 1, 0, .AHEAD. ) ;
#49 = ORIENTED_EDGE ( 'NONE', *, *, #95, .T. ) ;
#50 = FACE_OUTER_BOUND ( 'NONE', #170, .T. ) ;
#51 = APPLICATION_CONTEXT ( 'configuration controlled 3d designs of mechanical parts and assemblies' ) ;
#52 = APPROVAL_ROLE ( '' ) ;
#53 = DIRECTION ( 'NONE',  ( 0.0000000000000000000, 1.000000000000000000, 0.0000000000000000000 ) ) ;
#54 = CARTESIAN_POINT ( 'NONE',  ( 0.0000000000000000000, 0.0000000000000000000, 0.0000000000000000000 ) ) ;
#55 = CARTESIAN_POINT ( 'NONE',  ( 8.728703347107833388E-14, 2.999519565323706458E-32, 25.00000000000000000 ) ) ;
#56 = ADVANCED_FACE ( 'NONE', ( #35 ), #91, .F. ) ;
#57 = DIRECTION ( 'NONE',  ( 3.491481338843133355E-15, -1.224646799147353207E-16, 1.000000000000000000 ) ) ;
#58 = AXIS2_PLACEMENT_3D ( 'NONE', #54, #37, #122 ) ;
#59 = CARTESIAN_POINT ( 'NONE',  ( -1.282766372550154493E-30, 4.499338761231704644E-32, -3.673988912039226017E-16 ) ) ;
#60 = APPROVAL_STATUS ( 'not_yet_approved' ) ;
#61 = CC_DESIGN_PERSON_AND_ORGANIZATION_ASSIGNMENT ( #156, #82, ( #158 ) ) ;
#62 =( LENGTH_UNIT ( ) NAMED_UNIT ( * ) SI_UNIT ( .MILLI., .METRE. ) );
#63 = CC_DESIGN_APPROVAL ( #199, ( #31 ) ) ;
#64 = PERSON_AND_ORGANIZATION ( #196, #4 ) ;
#65 = CARTESIAN_POINT ( 'NONE',  ( 0.0000000000000000000, 0.0000000000000000000, 0.0000000000000000000 ) ) ;
#66 = AXIS2_PLACEMENT_3D ( 'NONE', #55, #57, #131 ) ;
#67 = ADVANCED_FACE ( 'NONE', ( #70, #119 ), #166, .T. ) ;
#68 = LOCAL_TIME ( 10, 33, 38.00000000000000000, #144 ) ;
#69 = LOCAL_TIME ( 10, 33, 38.00000000000000000, #48 ) ;
#70 = FACE_OUTER_BOUND ( 'NONE', #141, .T. ) ;
#71 = FACE_OUTER_BOUND ( 'NONE', #139, .T. ) ;
#72 = EDGE_LOOP ( 'NONE', ( #135 ) ) ;
#73 = CARTESIAN_POINT ( 'NONE',  ( 2.793185071074506684E-13, -9.797174393178826052E-15, 80.00000000000000000 ) ) ;
#74 = LOCAL_TIME ( 10, 33, 38.00000000000000000, #113 ) ;
#75 = UNCERTAINTY_MEASURE_WITH_UNIT (LENGTH_MEASURE( 1.000000000000000082E-05 ), #62, 'distance_accuracy_value', 'NONE');
#76 = DATE_AND_TIME ( #117, #69 ) ;
#77 = DIRECTION ( 'NONE',  ( 3.491481338843133355E-15, -1.224646799147353207E-16, 1.000000000000000000 ) ) ;
#78 = EDGE_LOOP ( 'NONE', ( #197 ) ) ;
#79 = PLANE ( 'NONE',  #66 ) ;
#80 = DIRECTION ( 'NONE',  ( -3.491481338843133355E-15, 1.224646799147353207E-16, -1.000000000000000000 ) ) ;
#81 = EDGE_CURVE ( 'NONE', #28, #28, #88, .T. ) ;
#82 = PERSON_AND_ORGANIZATION_ROLE ( 'creator' ) ;
#83 = AXIS2_PLACEMENT_3D ( 'NONE', #73, #138, #53 ) ;
#84 = AXIS2_PLACEMENT_3D ( 'NONE', #7, #105, #184 ) ;
#85 = MANIFOLD_SOLID_BREP ( 'Corps-Déplacer/Copier1[2]', #133 ) ;
#86 = DIRECTION ( 'NONE',  ( 1.000000000000000000, 0.0000000000000000000, 0.0000000000000000000 ) ) ;
#87 = CC_DESIGN_PERSON_AND_ORGANIZATION_ASSIGNMENT ( #97, #147, ( #186 ) ) ;
#88 = CIRCLE ( 'NONE', #33, 3.999999999999994671 ) ;
#89 = ORIENTED_EDGE ( 'NONE', *, *, #34, .T. ) ;
#90 = CC_DESIGN_DATE_AND_TIME_ASSIGNMENT ( #3, #42, ( #158 ) ) ;
#91 = PLANE ( 'NONE',  #84 ) ;
#92 = FACE_OUTER_BOUND ( 'NONE', #109, .T. ) ;
#93 = EDGE_LOOP ( 'NONE', ( #178 ) ) ;
#94 = FACE_BOUND ( 'NONE', #194, .T. ) ;
#95 = EDGE_CURVE ( 'NONE', #148, #148, #152, .T. ) ;
#96 = CARTESIAN_POINT ( 'NONE',  ( 4.275662058086250086E-31, 3.999999999999990674, 1.224598284550174978E-16 ) ) ;
#97 = PERSON_AND_ORGANIZATION ( #196, #4 ) ;
#98 = PERSON_AND_ORGANIZATION ( #196, #4 ) ;
#99 = EDGE_CURVE ( 'NONE', #172, #172, #129, .T. ) ;
#100 = CC_DESIGN_APPROVAL ( #21, ( #186 ) ) ;
#101 = ADVANCED_BREP_SHAPE_REPRESENTATION ( '372675', ( #154, #85, #41 ), #181 ) ;
#102 = PRODUCT_DEFINITION_SHAPE ( 'NONE', 'NONE',  #158 ) ;
#103 = ADVANCED_FACE ( 'NONE', ( #71 ), #104, .F. ) ;
#104 = PLANE ( 'NONE',  #46 ) ;
#105 = DIRECTION ( 'NONE',  ( 3.491481338843133355E-15, -1.224646799147353207E-16, 1.000000000000000000 ) ) ;
#106 = DIRECTION ( 'NONE',  ( -3.491481338843133355E-15, 1.224646799147353207E-16, -1.000000000000000000 ) ) ;
#107 = CARTESIAN_POINT ( 'NONE',  ( 8.728703347107833388E-14, -3.061616997868383043E-15, 25.00000000000000000 ) ) ;
#108 = DIRECTION ( 'NONE',  ( -3.491481338843133355E-15, 1.224646799147353207E-16, -1.000000000000000000 ) ) ;
#109 = EDGE_LOOP ( 'NONE', ( #49 ) ) ;
#110 = CARTESIAN_POINT ( 'NONE',  ( -6.413831862750772464E-31, 2.249669380615852322E-32, -1.836994456019613009E-16 ) ) ;
#111 = DATE_AND_TIME ( #127, #118 ) ;
#112 = CLOSED_SHELL ( 'NONE', ( #56, #67, #126, #103 ) ) ;
#113 = COORDINATED_UNIVERSAL_TIME_OFFSET ( 1, 0, .AHEAD. ) ;
#114 = PERSON_AND_ORGANIZATION ( #196, #4 ) ;
#115 = VERTEX_POINT ( 'NONE', #2 ) ;
#116 = ORIENTED_EDGE ( 'NONE', *, *, #34, .F. ) ;
#117 = CALENDAR_DATE ( 2021, 8, 12 ) ;
#118 = LOCAL_TIME ( 10, 33, 38.00000000000000000, #13 ) ;
#119 = FACE_OUTER_BOUND ( 'NONE', #23, .T. ) ;
#120 = ORIENTED_EDGE ( 'NONE', *, *, #136, .T. ) ;
#121 = DESIGN_CONTEXT ( 'detailed design', #157, 'design' ) ;
#122 = DIRECTION ( 'NONE',  ( 4.275831445896958607E-31, 1.000000000000000000, 1.224646799147353207E-16 ) ) ;
#123 = APPROVAL_STATUS ( 'not_yet_approved' ) ;
#124 = DIRECTION ( 'NONE',  ( 4.275831445896958607E-31, 1.000000000000000000, 1.224646799147353207E-16 ) ) ;
#125 = SHAPE_DEFINITION_REPRESENTATION ( #102, #101 ) ;
#126 = ADVANCED_FACE ( 'NONE', ( #50, #94 ), #162, .T. ) ;
#127 = CALENDAR_DATE ( 2021, 8, 12 ) ;
#128 = CALENDAR_DATE ( 2021, 8, 12 ) ;
#129 = CIRCLE ( 'NONE', #167, 3.999999999999994671 ) ;
#130 = PRODUCT_RELATED_PRODUCT_CATEGORY ( 'detail', '', ( #134 ) ) ;
#131 = DIRECTION ( 'NONE',  ( -4.275831445896958607E-31, -1.000000000000000000, -1.224646799147353207E-16 ) ) ;
#132 = DIRECTION ( 'NONE',  ( 0.0000000000000000000, 0.0000000000000000000, 1.000000000000000000 ) ) ;
#133 = CLOSED_SHELL ( 'NONE', ( #163, #146, #191 ) ) ;
#134 = PRODUCT ( '372675', '372675', '', ( #12 ) ) ;
#135 = ORIENTED_EDGE ( 'NONE', *, *, #99, .T. ) ;
#136 = EDGE_CURVE ( 'NONE', #115, #115, #30, .T. ) ;
#137 = AXIS2_PLACEMENT_3D ( 'NONE', #164, #182, #20 ) ;
#138 = DIRECTION ( 'NONE',  ( -3.491481338843133355E-15, 1.224646799147353207E-16, -1.000000000000000000 ) ) ;
#139 = EDGE_LOOP ( 'NONE', ( #116 ) ) ;
#140 = DIRECTION ( 'NONE',  ( -4.275831445896958607E-31, -1.000000000000000000, -1.224646799147353207E-16 ) ) ;
#141 = EDGE_LOOP ( 'NONE', ( #47 ) ) ;
#142 = APPROVAL_DATE_TIME ( #76, #199 ) ;
#143 = DIRECTION ( 'NONE',  ( 4.275831445896958607E-31, 1.000000000000000000, 1.224646799147353207E-16 ) ) ;
#144 = COORDINATED_UNIVERSAL_TIME_OFFSET ( 1, 0, .AHEAD. ) ;
#145 = CARTESIAN_POINT ( 'NONE',  ( 8.728703347107833388E-14, 3.999999999999991562, 25.00000000000000000 ) ) ;
#146 = ADVANCED_FACE ( 'NONE', ( #153, #169 ), #36, .T. ) ;
#147 = PERSON_AND_ORGANIZATION_ROLE ( 'creator' ) ;
#148 = VERTEX_POINT ( 'NONE', #96 ) ;
#149 = AXIS2_PLACEMENT_3D ( 'NONE', #180, #80, #183 ) ;
#150 = EDGE_LOOP ( 'NONE', ( #32 ) ) ;
#151 = DATE_TIME_ROLE ( 'classification_date' ) ;
#152 = CIRCLE ( 'NONE', #155, 3.999999999999990674 ) ;
#153 = FACE_OUTER_BOUND ( 'NONE', #150, .T. ) ;
#154 = MANIFOLD_SOLID_BREP ( 'Corps-Déplacer/Copier1[1]', #112 ) ;
#155 = AXIS2_PLACEMENT_3D ( 'NONE', #59, #38, #124 ) ;
#156 = PERSON_AND_ORGANIZATION ( #196, #4 ) ;
#157 = APPLICATION_CONTEXT ( 'configuration controlled 3d designs of mechanical parts and assemblies' ) ;
#158 = PRODUCT_DEFINITION ( 'UNKNOWN', '', #186, #121 ) ;
#159 = CARTESIAN_POINT ( 'NONE',  ( 8.728703347107833388E-14, 3.999999999999991562, 25.00000000000000000 ) ) ;
#160 = CC_DESIGN_APPROVAL ( #24, ( #158 ) ) ;
#161 = PERSON_AND_ORGANIZATION ( #196, #4 ) ;
#162 = CONICAL_SURFACE ( 'NONE', #83, 3.200000000000003286, 0.7853981633974597143 ) ;
#163 = ADVANCED_FACE ( 'NONE', ( #92 ), #185, .F. ) ;
#164 = CARTESIAN_POINT ( 'NONE',  ( 2.793185071074506684E-13, -9.797174393178826052E-15, 80.00000000000000000 ) ) ;
#165 = CARTESIAN_POINT ( 'NONE',  ( 2.793185071074506684E-13, 2.399615652258959583E-32, 80.00000000000000000 ) ) ;
#166 = CYLINDRICAL_SURFACE ( 'NONE', #58, 3.999999999999998224 ) ;
#167 = AXIS2_PLACEMENT_3D ( 'NONE', #198, #195, #8 ) ;
#168 = DATE_AND_TIME ( #179, #11 ) ;
#169 = FACE_OUTER_BOUND ( 'NONE', #72, .T. ) ;
#170 = EDGE_LOOP ( 'NONE', ( #10 ) ) ;
#171 = APPROVAL_ROLE ( '' ) ;
#172 = VERTEX_POINT ( 'NONE', #159 ) ;
#173 = DATE_AND_TIME ( #128, #74 ) ;
#174 = PERSON_AND_ORGANIZATION_ROLE ( 'design_supplier' ) ;
#175 =( NAMED_UNIT ( * ) PLANE_ANGLE_UNIT ( ) SI_UNIT ( $, .RADIAN. ) );
#176 = CC_DESIGN_DATE_AND_TIME_ASSIGNMENT ( #168, #151, ( #31 ) ) ;
#177 = AXIS2_PLACEMENT_3D ( 'NONE', #110, #77, #140 ) ;
#178 = ORIENTED_EDGE ( 'NONE', *, *, #99, .F. ) ;
#179 = CALENDAR_DATE ( 2021, 8, 12 ) ;
#180 = CARTESIAN_POINT ( 'NONE',  ( 2.765253220363762122E-13, -9.699202649247039195E-15, 79.20000000000001705 ) ) ;
#181 =( GEOMETRIC_REPRESENTATION_CONTEXT ( 3 ) GLOBAL_UNCERTAINTY_ASSIGNED_CONTEXT ( ( #75 ) ) GLOBAL_UNIT_ASSIGNED_CONTEXT ( ( #62, #175, #17 ) ) REPRESENTATION_CONTEXT ( 'NONE', 'WORKASPACE' ) );
#182 = DIRECTION ( 'NONE',  ( -3.491481338843133355E-15, 1.224646799147353207E-16, -1.000000000000000000 ) ) ;
#183 = DIRECTION ( 'NONE',  ( 0.0000000000000000000, 1.000000000000000000, 0.0000000000000000000 ) ) ;
#184 = DIRECTION ( 'NONE',  ( -4.275831445896958607E-31, -1.000000000000000000, -1.224646799147353207E-16 ) ) ;
#185 = PLANE ( 'NONE',  #177 ) ;
#186 = PRODUCT_DEFINITION_FORMATION_WITH_SPECIFIED_SOURCE ( 'ANY', '', #134, .NOT_KNOWN. ) ;
#187 = COORDINATED_UNIVERSAL_TIME_OFFSET ( 1, 0, .AHEAD. ) ;
#188 = APPROVAL_DATE_TIME ( #173, #21 ) ;
#189 = CARTESIAN_POINT ( 'NONE',  ( 2.793185071074506684E-13, 3.199999999999993072, 80.00000000000000000 ) ) ;
#190 = CC_DESIGN_PERSON_AND_ORGANIZATION_ASSIGNMENT ( #98, #5, ( #31 ) ) ;
#191 = ADVANCED_FACE ( 'NONE', ( #200 ), #79, .T. ) ;
#192 = AXIS2_PLACEMENT_3D ( 'NONE', #202, #106, #22 ) ;
#193 = APPROVAL_PERSON_ORGANIZATION ( #201, #199, #52 ) ;
#194 = EDGE_LOOP ( 'NONE', ( #89 ) ) ;
#195 = DIRECTION ( 'NONE',  ( -3.491481338843133355E-15, 1.224646799147353207E-16, -1.000000000000000000 ) ) ;
#196 = PERSON ( 'UNSPECIFIED', 'UNSPECIFIED', 'UNSPECIFIED', ('UNSPECIFIED'), ('UNSPECIFIED'), ('UNSPECIFIED') ) ;
#197 = ORIENTED_EDGE ( 'NONE', *, *, #81, .T. ) ;
#198 = CARTESIAN_POINT ( 'NONE',  ( 8.728703347107833388E-14, -3.061616997868383043E-15, 25.00000000000000000 ) ) ;
#199 = APPROVAL ( #123, 'UNSPECIFIED' ) ;
#200 = FACE_OUTER_BOUND ( 'NONE', #93, .T. ) ;
#201 = PERSON_AND_ORGANIZATION ( #196, #4 ) ;
#202 = CARTESIAN_POINT ( 'NONE',  ( 0.0000000000000000000, 0.0000000000000000000, 0.0000000000000000000 ) ) ;
#203 = APPROVAL_STATUS ( 'not_yet_approved' ) ;
ENDSEC;
END-ISO-10303-21;
