ISO-10303-21;
HEADER;
FILE_DESCRIPTION (( 'STEP AP203' ),
    '1' );
FILE_NAME ('372674.step',
    '2021-12-08T09:33:37',
    ( '' ),
    ( '' ),
    'SwSTEP 2.0',
    'SolidWorks 2019',
    '' );
FILE_SCHEMA (( 'CONFIG_CONTROL_DESIGN' ));
ENDSEC;

DATA;
#1 = CLOSED_SHELL ( 'NONE', ( #164, #100, #161 ) ) ;
#2 = COORDINATED_UNIVERSAL_TIME_OFFSET ( 1, 0, .AHEAD. ) ;
#3 = DESIGN_CONTEXT ( 'detailed design', #126, 'design' ) ;
#4 = AXIS2_PLACEMENT_3D ( 'NONE', #88, #162, #76 ) ;
#5 = CC_DESIGN_PERSON_AND_ORGANIZATION_ASSIGNMENT ( #62, #19, ( #155 ) ) ;
#6 = ORIENTED_EDGE ( 'NONE', *, *, #15, .F. ) ;
#7 = APPROVAL_PERSON_ORGANIZATION ( #156, #79, #189 ) ;
#8 = CIRCLE ( 'NONE', #98, 3.999999999999997335 ) ;
#9 = FACE_OUTER_BOUND ( 'NONE', #86, .T. ) ;
#10 = LOCAL_TIME ( 10, 33, 37.00000000000000000, #184 ) ;
#11 = CYLINDRICAL_SURFACE ( 'NONE', #169, 3.999999999999994671 ) ;
#12 = DIRECTION ( 'NONE',  ( -3.491481338843133355E-15, 1.224646799147353207E-16, -1.000000000000000000 ) ) ;
#13 = ORIENTED_EDGE ( 'NONE', *, *, #117, .F. ) ;
#14 = DIRECTION ( 'NONE',  ( 4.275831445896958607E-31, 1.000000000000000000, 1.224646799147353207E-16 ) ) ;
#15 = EDGE_CURVE ( 'NONE', #196, #196, #139, .T. ) ;
#16 = DATE_AND_TIME ( #54, #93 ) ;
#17 = APPROVAL_ROLE ( '' ) ;
#18 = DIRECTION ( 'NONE',  ( 0.0000000000000000000, 0.0000000000000000000, 1.000000000000000000 ) ) ;
#19 = PERSON_AND_ORGANIZATION_ROLE ( 'creator' ) ;
#20 = CARTESIAN_POINT ( 'NONE',  ( 8.030407079339205455E-14, 3.999999999999990674, 23.00000000000000000 ) ) ;
#21 = APPLICATION_CONTEXT ( 'configuration controlled 3d designs of mechanical parts and assemblies' ) ;
#22 = ORIENTED_EDGE ( 'NONE', *, *, #188, .F. ) ;
#23 = EDGE_LOOP ( 'NONE', ( #69 ) ) ;
#24 = EDGE_LOOP ( 'NONE', ( #160 ) ) ;
#25 = DIRECTION ( 'NONE',  ( -4.275831445896958607E-31, -1.000000000000000000, -1.224646799147353207E-16 ) ) ;
#26 = CIRCLE ( 'NONE', #112, 3.999999999999990674 ) ;
#27 = CYLINDRICAL_SURFACE ( 'NONE', #109, 3.999999999999991562 ) ;
#28 = DIRECTION ( 'NONE',  ( 4.275831445896959482E-31, 1.000000000000000000, 1.224646799147353454E-16 ) ) ;
#29 = DIRECTION ( 'NONE',  ( 3.491481338843133355E-15, -1.224646799147353207E-16, 1.000000000000000000 ) ) ;
#30 = CC_DESIGN_SECURITY_CLASSIFICATION ( #148, ( #155 ) ) ;
#31 = FACE_OUTER_BOUND ( 'NONE', #24, .T. ) ;
#32 = PERSON_AND_ORGANIZATION_ROLE ( 'design_owner' ) ;
#33 = PRODUCT_RELATED_PRODUCT_CATEGORY ( 'detail', '', ( #39 ) ) ;
#34 = DATE_AND_TIME ( #137, #179 ) ;
#35 = DATE_AND_TIME ( #50, #10 ) ;
#36 = AXIS2_PLACEMENT_3D ( 'NONE', #165, #150, #149 ) ;
#37 = CLOSED_SHELL ( 'NONE', ( #47, #182, #200, #193 ) ) ;
#38 = APPROVAL_PERSON_ORGANIZATION ( #94, #147, #17 ) ;
#39 = PRODUCT ( '372674', '372674', '', ( #110 ) ) ;
#40 = CARTESIAN_POINT ( 'NONE',  ( 2.094888803305880013E-13, 3.199999999999990408, 60.00000000000000000 ) ) ;
#41 = DIRECTION ( 'NONE',  ( -3.491481338843133355E-15, 1.224646799147353207E-16, -1.000000000000000000 ) ) ;
#42 = CC_DESIGN_APPROVAL ( #195, ( #155 ) ) ;
#43 = CC_DESIGN_APPROVAL ( #147, ( #104 ) ) ;
#44 = CARTESIAN_POINT ( 'NONE',  ( 0.0000000000000000000, 0.0000000000000000000, 0.0000000000000000000 ) ) ;
#45 = FACE_OUTER_BOUND ( 'NONE', #67, .T. ) ;
#46 = CARTESIAN_POINT ( 'NONE',  ( 2.094888803305880013E-13, -7.347880794884118356E-15, 60.00000000000000000 ) ) ;
#47 = ADVANCED_FACE ( 'NONE', ( #102 ), #133, .F. ) ;
#48 = CARTESIAN_POINT ( 'NONE',  ( 2.066956952595134694E-13, 3.999999999999990674, 59.19999999999999574 ) ) ;
#49 = CARTESIAN_POINT ( 'NONE',  ( 4.275753076543798760E-31, 3.999999999999990674, 1.224624353272506412E-16 ) ) ;
#50 = CALENDAR_DATE ( 2021, 8, 12 ) ;
#51 = UNCERTAINTY_MEASURE_WITH_UNIT (LENGTH_MEASURE( 1.000000000000000082E-05 ), #122, 'distance_accuracy_value', 'NONE');
#52 = VERTEX_POINT ( 'NONE', #48 ) ;
#53 =( GEOMETRIC_REPRESENTATION_CONTEXT ( 3 ) GLOBAL_UNCERTAINTY_ASSIGNED_CONTEXT ( ( #51 ) ) GLOBAL_UNIT_ASSIGNED_CONTEXT ( ( #122, #81, #106 ) ) REPRESENTATION_CONTEXT ( 'NONE', 'WORKASPACE' ) );
#54 = CALENDAR_DATE ( 2021, 8, 12 ) ;
#55 = DIRECTION ( 'NONE',  ( 0.0000000000000000000, 1.000000000000000000, 0.0000000000000000000 ) ) ;
#56 = VERTEX_POINT ( 'NONE', #114 ) ;
#57 = PLANE ( 'NONE',  #145 ) ;
#58 = FACE_OUTER_BOUND ( 'NONE', #144, .T. ) ;
#59 = PLANE ( 'NONE',  #36 ) ;
#60 = COORDINATED_UNIVERSAL_TIME_OFFSET ( 1, 0, .AHEAD. ) ;
#61 = MANIFOLD_SOLID_BREP ( 'Corps-Déplacer/Copier1[2]', #1 ) ;
#62 = PERSON_AND_ORGANIZATION ( #96, #124 ) ;
#63 = PERSON_AND_ORGANIZATION_ROLE ( 'classification_officer' ) ;
#64 = CC_DESIGN_PERSON_AND_ORGANIZATION_ASSIGNMENT ( #123, #90, ( #104 ) ) ;
#65 = APPROVAL_STATUS ( 'not_yet_approved' ) ;
#66 = AXIS2_PLACEMENT_3D ( 'NONE', #198, #29, #101 ) ;
#67 = EDGE_LOOP ( 'NONE', ( #192 ) ) ;
#68 = CONICAL_SURFACE ( 'NONE', #135, 3.199999999999997957, 0.7853981633974467247 ) ;
#69 = ORIENTED_EDGE ( 'NONE', *, *, #188, .T. ) ;
#70 = FACE_BOUND ( 'NONE', #115, .T. ) ;
#71 = DIRECTION ( 'NONE',  ( 4.275831445896958607E-31, 1.000000000000000000, 1.224646799147352961E-16 ) ) ;
#72 = CC_DESIGN_DATE_AND_TIME_ASSIGNMENT ( #35, #92, ( #148 ) ) ;
#73 = FACE_OUTER_BOUND ( 'NONE', #23, .T. ) ;
#74 = CARTESIAN_POINT ( 'NONE',  ( 2.066956952595134694E-13, -7.249909050952329922E-15, 59.19999999999999574 ) ) ;
#75 = AXIS2_PLACEMENT_3D ( 'NONE', #168, #18, #203 ) ;
#76 = DIRECTION ( 'NONE',  ( 0.0000000000000000000, 1.000000000000000000, 0.0000000000000000000 ) ) ;
#77 = APPROVAL_STATUS ( 'not_yet_approved' ) ;
#78 = DATE_TIME_ROLE ( 'creation_date' ) ;
#79 = APPROVAL ( #111, 'UNSPECIFIED' ) ;
#80 = APPROVAL_DATE_TIME ( #119, #195 ) ;
#81 =( NAMED_UNIT ( * ) PLANE_ANGLE_UNIT ( ) SI_UNIT ( $, .RADIAN. ) );
#82 = ORIENTED_EDGE ( 'NONE', *, *, #91, .T. ) ;
#83 = AXIS2_PLACEMENT_3D ( 'NONE', #103, #152, #89 ) ;
#84 = CC_DESIGN_PERSON_AND_ORGANIZATION_ASSIGNMENT ( #140, #63, ( #148 ) ) ;
#85 = APPROVAL_PERSON_ORGANIZATION ( #138, #195, #201 ) ;
#86 = EDGE_LOOP ( 'NONE', ( #22 ) ) ;
#87 = DIRECTION ( 'NONE',  ( -3.491481338843133355E-15, 1.224646799147353207E-16, -1.000000000000000000 ) ) ;
#88 = CARTESIAN_POINT ( 'NONE',  ( 8.030407079339205455E-14, -2.816687638038912352E-15, 23.00000000000000000 ) ) ;
#89 = DIRECTION ( 'NONE',  ( 4.275831445896958607E-31, 1.000000000000000000, 1.224646799147353207E-16 ) ) ;
#90 = PERSON_AND_ORGANIZATION_ROLE ( 'creator' ) ;
#91 = EDGE_CURVE ( 'NONE', #56, #56, #175, .T. ) ;
#92 = DATE_TIME_ROLE ( 'classification_date' ) ;
#93 = LOCAL_TIME ( 10, 33, 37.00000000000000000, #187 ) ;
#94 = PERSON_AND_ORGANIZATION ( #96, #124 ) ;
#95 = EDGE_CURVE ( 'NONE', #177, #177, #26, .T. ) ;
#96 = PERSON ( 'UNSPECIFIED', 'UNSPECIFIED', 'UNSPECIFIED', ('UNSPECIFIED'), ('UNSPECIFIED'), ('UNSPECIFIED') ) ;
#97 = EDGE_LOOP ( 'NONE', ( #13 ) ) ;
#98 = AXIS2_PLACEMENT_3D ( 'NONE', #74, #87, #116 ) ;
#99 = EDGE_LOOP ( 'NONE', ( #142 ) ) ;
#100 = ADVANCED_FACE ( 'NONE', ( #58, #180 ), #27, .T. ) ;
#101 = DIRECTION ( 'NONE',  ( -4.275831445896958607E-31, -1.000000000000000000, -1.224646799147353207E-16 ) ) ;
#102 = FACE_OUTER_BOUND ( 'NONE', #99, .T. ) ;
#103 = CARTESIAN_POINT ( 'NONE',  ( 2.094888803305880013E-13, 2.399615652258959583E-32, 60.00000000000000000 ) ) ;
#104 = PRODUCT_DEFINITION ( 'UNKNOWN', '', #155, #3 ) ;
#105 = CARTESIAN_POINT ( 'NONE',  ( 8.030407079339205455E-14, -2.816687638038912352E-15, 23.00000000000000000 ) ) ;
#106 =( NAMED_UNIT ( * ) SI_UNIT ( $, .STERADIAN. ) SOLID_ANGLE_UNIT ( ) );
#107 = PERSON_AND_ORGANIZATION_ROLE ( 'design_supplier' ) ;
#108 = VERTEX_POINT ( 'NONE', #20 ) ;
#109 = AXIS2_PLACEMENT_3D ( 'NONE', #136, #166, #71 ) ;
#110 = MECHANICAL_CONTEXT ( 'NONE', #21, 'mechanical' ) ;
#111 = APPROVAL_STATUS ( 'not_yet_approved' ) ;
#112 = AXIS2_PLACEMENT_3D ( 'NONE', #163, #12, #14 ) ;
#113 = FACE_OUTER_BOUND ( 'NONE', #176, .T. ) ;
#114 = CARTESIAN_POINT ( 'NONE',  ( 8.030407079339205455E-14, 3.999999999999990674, 23.00000000000000000 ) ) ;
#115 = EDGE_LOOP ( 'NONE', ( #167 ) ) ;
#116 = DIRECTION ( 'NONE',  ( 0.0000000000000000000, 1.000000000000000000, 0.0000000000000000000 ) ) ;
#117 = EDGE_CURVE ( 'NONE', #108, #108, #141, .T. ) ;
#118 = DIRECTION ( 'NONE',  ( -3.491481338843133355E-15, 1.224646799147353207E-16, -1.000000000000000000 ) ) ;
#119 = DATE_AND_TIME ( #183, #143 ) ;
#120 = CC_DESIGN_PERSON_AND_ORGANIZATION_ASSIGNMENT ( #185, #32, ( #39 ) ) ;
#121 = PERSON_AND_ORGANIZATION ( #96, #124 ) ;
#122 =( LENGTH_UNIT ( ) NAMED_UNIT ( * ) SI_UNIT ( .MILLI., .METRE. ) );
#123 = PERSON_AND_ORGANIZATION ( #96, #124 ) ;
#124 = ORGANIZATION ( 'UNSPECIFIED', 'UNSPECIFIED', '' ) ;
#125 = ADVANCED_BREP_SHAPE_REPRESENTATION ( '372674', ( #130, #61, #75 ), #53 ) ;
#126 = APPLICATION_CONTEXT ( 'configuration controlled 3d designs of mechanical parts and assemblies' ) ;
#127 = EDGE_LOOP ( 'NONE', ( #82 ) ) ;
#128 = CC_DESIGN_DATE_AND_TIME_ASSIGNMENT ( #16, #78, ( #104 ) ) ;
#129 = CALENDAR_DATE ( 2021, 8, 12 ) ;
#130 = MANIFOLD_SOLID_BREP ( 'Corps-Déplacer/Copier1[1]', #37 ) ;
#131 = CARTESIAN_POINT ( 'NONE',  ( 2.094888803305880013E-13, -7.347880794884118356E-15, 60.00000000000000000 ) ) ;
#132 = FACE_OUTER_BOUND ( 'NONE', #97, .T. ) ;
#133 = PLANE ( 'NONE',  #66 ) ;
#134 = DIRECTION ( 'NONE',  ( 0.0000000000000000000, 1.000000000000000000, 0.0000000000000000000 ) ) ;
#135 = AXIS2_PLACEMENT_3D ( 'NONE', #131, #194, #55 ) ;
#136 = CARTESIAN_POINT ( 'NONE',  ( 0.0000000000000000000, 0.0000000000000000000, 0.0000000000000000000 ) ) ;
#137 = CALENDAR_DATE ( 2021, 8, 12 ) ;
#138 = PERSON_AND_ORGANIZATION ( #96, #124 ) ;
#139 = CIRCLE ( 'NONE', #153, 3.199999999999997957 ) ;
#140 = PERSON_AND_ORGANIZATION ( #96, #124 ) ;
#141 = CIRCLE ( 'NONE', #186, 3.999999999999993339 ) ;
#142 = ORIENTED_EDGE ( 'NONE', *, *, #117, .T. ) ;
#143 = LOCAL_TIME ( 10, 33, 37.00000000000000000, #60 ) ;
#144 = EDGE_LOOP ( 'NONE', ( #190 ) ) ;
#145 = AXIS2_PLACEMENT_3D ( 'NONE', #181, #178, #25 ) ;
#146 = SHAPE_DEFINITION_REPRESENTATION ( #173, #125 ) ;
#147 = APPROVAL ( #65, 'UNSPECIFIED' ) ;
#148 = SECURITY_CLASSIFICATION ( '', '', #154 ) ;
#149 = DIRECTION ( 'NONE',  ( -4.275831445896958607E-31, -1.000000000000000000, -1.224646799147353207E-16 ) ) ;
#150 = DIRECTION ( 'NONE',  ( 3.491481338843133355E-15, -1.224646799147353207E-16, 1.000000000000000000 ) ) ;
#151 = PLANE ( 'NONE',  #83 ) ;
#152 = DIRECTION ( 'NONE',  ( -3.491481338843133355E-15, 1.224646799147353207E-16, -1.000000000000000000 ) ) ;
#153 = AXIS2_PLACEMENT_3D ( 'NONE', #46, #41, #134 ) ;
#154 = SECURITY_CLASSIFICATION_LEVEL ( 'unclassified' ) ;
#155 = PRODUCT_DEFINITION_FORMATION_WITH_SPECIFIED_SOURCE ( 'ANY', '', #39, .NOT_KNOWN. ) ;
#156 = PERSON_AND_ORGANIZATION ( #96, #124 ) ;
#157 = CC_DESIGN_PERSON_AND_ORGANIZATION_ASSIGNMENT ( #121, #107, ( #155 ) ) ;
#158 = APPROVAL_DATE_TIME ( #34, #147 ) ;
#159 = APPROVAL_DATE_TIME ( #191, #79 ) ;
#160 = ORIENTED_EDGE ( 'NONE', *, *, #91, .F. ) ;
#161 = ADVANCED_FACE ( 'NONE', ( #31 ), #57, .T. ) ;
#162 = DIRECTION ( 'NONE',  ( -3.491481338843133355E-15, 1.224646799147353207E-16, -1.000000000000000000 ) ) ;
#163 = CARTESIAN_POINT ( 'NONE',  ( -1.282757270704399626E-30, 4.499306836254344228E-32, -3.673962843316894584E-16 ) ) ;
#164 = ADVANCED_FACE ( 'NONE', ( #45 ), #59, .F. ) ;
#165 = CARTESIAN_POINT ( 'NONE',  ( -6.413786353521998128E-31, 2.249653418127172114E-32, -1.836981421658447292E-16 ) ) ;
#166 = DIRECTION ( 'NONE',  ( -3.491481338843133355E-15, 1.224646799147353207E-16, -1.000000000000000000 ) ) ;
#167 = ORIENTED_EDGE ( 'NONE', *, *, #15, .T. ) ;
#168 = CARTESIAN_POINT ( 'NONE',  ( 0.0000000000000000000, 0.0000000000000000000, 0.0000000000000000000 ) ) ;
#169 = AXIS2_PLACEMENT_3D ( 'NONE', #44, #118, #28 ) ;
#170 = APPLICATION_PROTOCOL_DEFINITION ( 'international standard', 'config_control_design', 1994, #21 ) ;
#171 = APPLICATION_PROTOCOL_DEFINITION ( 'international standard', 'config_control_design', 1994, #126 ) ;
#172 = COORDINATED_UNIVERSAL_TIME_OFFSET ( 1, 0, .AHEAD. ) ;
#173 = PRODUCT_DEFINITION_SHAPE ( 'NONE', 'NONE',  #104 ) ;
#174 = LOCAL_TIME ( 10, 33, 37.00000000000000000, #172 ) ;
#175 = CIRCLE ( 'NONE', #4, 3.999999999999993339 ) ;
#176 = EDGE_LOOP ( 'NONE', ( #6 ) ) ;
#177 = VERTEX_POINT ( 'NONE', #49 ) ;
#178 = DIRECTION ( 'NONE',  ( 3.491481338843133355E-15, -1.224646799147353207E-16, 1.000000000000000000 ) ) ;
#179 = LOCAL_TIME ( 10, 33, 37.00000000000000000, #2 ) ;
#180 = FACE_OUTER_BOUND ( 'NONE', #127, .T. ) ;
#181 = CARTESIAN_POINT ( 'NONE',  ( 8.030407079339205455E-14, 2.999519565323706458E-32, 23.00000000000000000 ) ) ;
#182 = ADVANCED_FACE ( 'NONE', ( #132, #73 ), #11, .T. ) ;
#183 = CALENDAR_DATE ( 2021, 8, 12 ) ;
#184 = COORDINATED_UNIVERSAL_TIME_OFFSET ( 1, 0, .AHEAD. ) ;
#185 = PERSON_AND_ORGANIZATION ( #96, #124 ) ;
#186 = AXIS2_PLACEMENT_3D ( 'NONE', #105, #199, #197 ) ;
#187 = COORDINATED_UNIVERSAL_TIME_OFFSET ( 1, 0, .AHEAD. ) ;
#188 = EDGE_CURVE ( 'NONE', #52, #52, #8, .T. ) ;
#189 = APPROVAL_ROLE ( '' ) ;
#190 = ORIENTED_EDGE ( 'NONE', *, *, #95, .F. ) ;
#191 = DATE_AND_TIME ( #129, #174 ) ;
#192 = ORIENTED_EDGE ( 'NONE', *, *, #95, .T. ) ;
#193 = ADVANCED_FACE ( 'NONE', ( #113 ), #151, .F. ) ;
#194 = DIRECTION ( 'NONE',  ( -3.491481338843133355E-15, 1.224646799147353207E-16, -1.000000000000000000 ) ) ;
#195 = APPROVAL ( #77, 'UNSPECIFIED' ) ;
#196 = VERTEX_POINT ( 'NONE', #40 ) ;
#197 = DIRECTION ( 'NONE',  ( 0.0000000000000000000, 1.000000000000000000, 0.0000000000000000000 ) ) ;
#198 = CARTESIAN_POINT ( 'NONE',  ( 8.030407079339205455E-14, 2.999519565323706458E-32, 23.00000000000000000 ) ) ;
#199 = DIRECTION ( 'NONE',  ( -3.491481338843133355E-15, 1.224646799147353207E-16, -1.000000000000000000 ) ) ;
#200 = ADVANCED_FACE ( 'NONE', ( #9, #70 ), #68, .T. ) ;
#201 = APPROVAL_ROLE ( '' ) ;
#202 = CC_DESIGN_APPROVAL ( #79, ( #148 ) ) ;
#203 = DIRECTION ( 'NONE',  ( 1.000000000000000000, 0.0000000000000000000, 0.0000000000000000000 ) ) ;
ENDSEC;
END-ISO-10303-21;
