ISO-10303-21;
HEADER;
FILE_DESCRIPTION (( 'STEP AP203' ),
    '1' );
FILE_NAME ('372673.step',
    '2021-12-08T09:33:37',
    ( '' ),
    ( '' ),
    'SwSTEP 2.0',
    'SolidWorks 2019',
    '' );
FILE_SCHEMA (( 'CONFIG_CONTROL_DESIGN' ));
ENDSEC;

DATA;
#1 = CC_DESIGN_DATE_AND_TIME_ASSIGNMENT ( #206, #141, ( #177 ) ) ;
#2 = DATE_AND_TIME ( #19, #120 ) ;
#3 = AXIS2_PLACEMENT_3D ( 'NONE', #132, #99, #164 ) ;
#4 = COORDINATED_UNIVERSAL_TIME_OFFSET ( 1, 0, .AHEAD. ) ;
#5 = LOCAL_TIME ( 10, 33, 37.00000000000000000, #4 ) ;
#6 = APPROVAL ( #18, 'UNSPECIFIED' ) ;
#7 = DIRECTION ( 'NONE',  ( 0.0000000000000000000, 1.000000000000000000, 0.0000000000000000000 ) ) ;
#8 = CARTESIAN_POINT ( 'NONE',  ( 2.793185071074506684E-13, -9.797174393178826052E-15, 80.00000000000000000 ) ) ;
#9 = AXIS2_PLACEMENT_3D ( 'NONE', #81, #154, #57 ) ;
#10 = DIRECTION ( 'NONE',  ( 1.000000000000000000, 0.0000000000000000000, 0.0000000000000000000 ) ) ;
#11 = CARTESIAN_POINT ( 'NONE',  ( 2.793185071074506684E-13, 3.199999999999990408, 80.00000000000000000 ) ) ;
#12 = ADVANCED_FACE ( 'NONE', ( #207 ), #146, .T. ) ;
#13 = ORIENTED_EDGE ( 'NONE', *, *, #186, .T. ) ;
#14 = ADVANCED_FACE ( 'NONE', ( #127 ), #69, .F. ) ;
#15 = ORIENTED_EDGE ( 'NONE', *, *, #106, .F. ) ;
#16 = CC_DESIGN_PERSON_AND_ORGANIZATION_ASSIGNMENT ( #76, #53, ( #122 ) ) ;
#17 = CIRCLE ( 'NONE', #90, 2.999999999999996447 ) ;
#18 = APPROVAL_STATUS ( 'not_yet_approved' ) ;
#19 = CALENDAR_DATE ( 2021, 8, 12 ) ;
#20 = ADVANCED_FACE ( 'NONE', ( #67, #110 ), #117, .T. ) ;
#21 = CC_DESIGN_SECURITY_CLASSIFICATION ( #177, ( #109 ) ) ;
#22 = DIRECTION ( 'NONE',  ( 0.0000000000000000000, -1.000000000000000000, 0.0000000000000000000 ) ) ;
#23 = CARTESIAN_POINT ( 'NONE',  ( 0.0000000000000000000, 0.0000000000000000000, 0.0000000000000000000 ) ) ;
#24 = VERTEX_POINT ( 'NONE', #11 ) ;
#25 = APPROVAL_ROLE ( '' ) ;
#26 = EDGE_CURVE ( 'NONE', #24, #24, #28, .T. ) ;
#27 = DIRECTION ( 'NONE',  ( 0.0000000000000000000, 1.000000000000000000, 0.0000000000000000000 ) ) ;
#28 = CIRCLE ( 'NONE', #196, 3.200000000000000622 ) ;
#29 = PRODUCT_RELATED_PRODUCT_CATEGORY ( 'detail', '', ( #122 ) ) ;
#30 = EDGE_LOOP ( 'NONE', ( #222 ) ) ;
#31 = EDGE_LOOP ( 'NONE', ( #167 ) ) ;
#32 = DIRECTION ( 'NONE',  ( -3.491481338843133355E-15, 1.224646799147353207E-16, -1.000000000000000000 ) ) ;
#33 = ADVANCED_FACE ( 'NONE', ( #210, #191 ), #151, .T. ) ;
#34 = DIRECTION ( 'NONE',  ( -3.491481338843133355E-15, 1.224646799147353207E-16, -1.000000000000000000 ) ) ;
#35 = FACE_OUTER_BOUND ( 'NONE', #157, .T. ) ;
#36 = PERSON_AND_ORGANIZATION ( #174, #150 ) ;
#37 = DIRECTION ( 'NONE',  ( 0.0000000000000000000, 1.000000000000000000, 0.0000000000000000000 ) ) ;
#38 = COORDINATED_UNIVERSAL_TIME_OFFSET ( 1, 0, .AHEAD. ) ;
#39 = DIRECTION ( 'NONE',  ( 3.491481338843133355E-15, -1.276467311168695266E-16, 1.000000000000000000 ) ) ;
#40 = PLANE ( 'NONE',  #3 ) ;
#41 = ORIENTED_EDGE ( 'NONE', *, *, #106, .T. ) ;
#42 = APPROVAL ( #94, 'UNSPECIFIED' ) ;
#43 = AXIS2_PLACEMENT_3D ( 'NONE', #129, #32, #172 ) ;
#44 = EDGE_LOOP ( 'NONE', ( #217 ) ) ;
#45 = FACE_OUTER_BOUND ( 'NONE', #30, .T. ) ;
#46 = APPROVAL_ROLE ( '' ) ;
#47 = FACE_OUTER_BOUND ( 'NONE', #220, .T. ) ;
#48 = ADVANCED_FACE ( 'NONE', ( #199, #121 ), #166, .T. ) ;
#49 = CYLINDRICAL_SURFACE ( 'NONE', #43, 3.999999999999996447 ) ;
#50 = LOCAL_TIME ( 10, 33, 37.00000000000000000, #160 ) ;
#51 = PERSON_AND_ORGANIZATION_ROLE ( 'classification_officer' ) ;
#52 = VERTEX_POINT ( 'NONE', #114 ) ;
#53 = PERSON_AND_ORGANIZATION_ROLE ( 'design_owner' ) ;
#54 = PERSON_AND_ORGANIZATION ( #174, #150 ) ;
#55 = CIRCLE ( 'NONE', #212, 2.999999999999997335 ) ;
#56 = ORIENTED_EDGE ( 'NONE', *, *, #101, .F. ) ;
#57 = DIRECTION ( 'NONE',  ( 0.0000000000000000000, -1.000000000000000000, 0.0000000000000000000 ) ) ;
#58 = DIRECTION ( 'NONE',  ( 0.0000000000000000000, -1.000000000000000000, 0.0000000000000000000 ) ) ;
#59 = DIRECTION ( 'NONE',  ( -4.275831445896958607E-31, -1.000000000000000000, -1.224646799147353207E-16 ) ) ;
#60 = AXIS2_PLACEMENT_3D ( 'NONE', #173, #92, #22 ) ;
#61 = PERSON_AND_ORGANIZATION_ROLE ( 'design_supplier' ) ;
#62 = PRODUCT_DEFINITION ( 'UNKNOWN', '', #109, #159 ) ;
#63 = COORDINATED_UNIVERSAL_TIME_OFFSET ( 1, 0, .AHEAD. ) ;
#64 = PERSON_AND_ORGANIZATION ( #174, #150 ) ;
#65 = CARTESIAN_POINT ( 'NONE',  ( 2.793185071074506684E-13, -9.797174393178826052E-15, 80.00000000000000000 ) ) ;
#66 = AXIS2_PLACEMENT_3D ( 'NONE', #161, #115, #59 ) ;
#67 = FACE_BOUND ( 'NONE', #44, .T. ) ;
#68 = FACE_OUTER_BOUND ( 'NONE', #152, .T. ) ;
#69 = PLANE ( 'NONE',  #66 ) ;
#70 = CC_DESIGN_APPROVAL ( #6, ( #177 ) ) ;
#71 = CALENDAR_DATE ( 2021, 8, 12 ) ;
#72 = APPLICATION_CONTEXT ( 'configuration controlled 3d designs of mechanical parts and assemblies' ) ;
#73 = APPROVAL_ROLE ( '' ) ;
#74 = AXIS2_PLACEMENT_3D ( 'NONE', #65, #178, #7 ) ;
#75 = MECHANICAL_CONTEXT ( 'NONE', #72, 'mechanical' ) ;
#76 = PERSON_AND_ORGANIZATION ( #174, #150 ) ;
#77 = PRODUCT_DEFINITION_SHAPE ( 'NONE', 'NONE',  #62 ) ;
#78 = CARTESIAN_POINT ( 'NONE',  ( 2.765253220363761617E-13, 3.999999999999990674, 79.20000000000000284 ) ) ;
#79 = EDGE_LOOP ( 'NONE', ( #56 ) ) ;
#80 = VERTEX_POINT ( 'NONE', #84 ) ;
#81 = CARTESIAN_POINT ( 'NONE',  ( 1.177748259155351246E-13, -4.305786019454323639E-15, 33.73205080756886076 ) ) ;
#82 = UNCERTAINTY_MEASURE_WITH_UNIT (LENGTH_MEASURE( 1.000000000000000082E-05 ), #131, 'distance_accuracy_value', 'NONE');
#83 = EDGE_LOOP ( 'NONE', ( #181 ) ) ;
#84 = CARTESIAN_POINT ( 'NONE',  ( 1.047444401652940007E-13, -3.000000000000001332, 30.00000000000000000 ) ) ;
#85 = CC_DESIGN_APPROVAL ( #143, ( #109 ) ) ;
#86 = ADVANCED_FACE ( 'NONE', ( #47, #35 ), #49, .T. ) ;
#87 = AXIS2_PLACEMENT_3D ( 'NONE', #140, #185, #153 ) ;
#88 = APPLICATION_CONTEXT ( 'configuration controlled 3d designs of mechanical parts and assemblies' ) ;
#89 = CARTESIAN_POINT ( 'NONE',  ( 2.765253220363761617E-13, -9.699202649247037618E-15, 79.20000000000000284 ) ) ;
#90 = AXIS2_PLACEMENT_3D ( 'NONE', #183, #218, #138 ) ;
#91 = DIRECTION ( 'NONE',  ( 3.491481338843133355E-15, -1.276467311168695266E-16, 1.000000000000000000 ) ) ;
#92 = DIRECTION ( 'NONE',  ( 3.491481338843133355E-15, -1.276467311168695266E-16, 1.000000000000000000 ) ) ;
#93 =( NAMED_UNIT ( * ) SI_UNIT ( $, .STERADIAN. ) SOLID_ANGLE_UNIT ( ) );
#94 = APPROVAL_STATUS ( 'not_yet_approved' ) ;
#95 = VERTEX_POINT ( 'NONE', #78 ) ;
#96 = DIRECTION ( 'NONE',  ( 0.0000000000000000000, 0.0000000000000000000, 1.000000000000000000 ) ) ;
#97 = ADVANCED_BREP_SHAPE_REPRESENTATION ( '372673', ( #147, #134, #179 ), #113 ) ;
#98 = APPROVAL_DATE_TIME ( #214, #42 ) ;
#99 = DIRECTION ( 'NONE',  ( 3.491481338843133355E-15, -1.224646799147353207E-16, 1.000000000000000000 ) ) ;
#100 =( NAMED_UNIT ( * ) PLANE_ANGLE_UNIT ( ) SI_UNIT ( $, .RADIAN. ) );
#101 = EDGE_CURVE ( 'NONE', #95, #95, #126, .T. ) ;
#102 = CARTESIAN_POINT ( 'NONE',  ( 1.047444401652940007E-13, -3.829401933506085895E-15, 30.00000000000000000 ) ) ;
#103 = EDGE_LOOP ( 'NONE', ( #13 ) ) ;
#104 = PLANE ( 'NONE',  #87 ) ;
#105 = EDGE_LOOP ( 'NONE', ( #155 ) ) ;
#106 = EDGE_CURVE ( 'NONE', #182, #182, #17, .T. ) ;
#107 = CARTESIAN_POINT ( 'NONE',  ( -1.085582104150908805E-31, -2.999999999999996447, -3.109230721280627038E-17 ) ) ;
#108 = AXIS2_PLACEMENT_3D ( 'NONE', #149, #130, #111 ) ;
#109 = PRODUCT_DEFINITION_FORMATION_WITH_SPECIFIED_SOURCE ( 'ANY', '', #122, .NOT_KNOWN. ) ;
#110 = FACE_OUTER_BOUND ( 'NONE', #103, .T. ) ;
#111 = DIRECTION ( 'NONE',  ( -4.275831445896958607E-31, -1.000000000000000000, -1.224646799147353207E-16 ) ) ;
#112 = APPROVAL_STATUS ( 'not_yet_approved' ) ;
#113 =( GEOMETRIC_REPRESENTATION_CONTEXT ( 3 ) GLOBAL_UNCERTAINTY_ASSIGNED_CONTEXT ( ( #82 ) ) GLOBAL_UNIT_ASSIGNED_CONTEXT ( ( #131, #100, #93 ) ) REPRESENTATION_CONTEXT ( 'NONE', 'WORKASPACE' ) );
#114 = CARTESIAN_POINT ( 'NONE',  ( 1.047444401652940007E-13, -3.000000000000001332, 30.00000000000000000 ) ) ;
#115 = DIRECTION ( 'NONE',  ( 3.491481338843133355E-15, -1.224646799147353207E-16, 1.000000000000000000 ) ) ;
#116 = PERSON_AND_ORGANIZATION ( #174, #150 ) ;
#117 = CONICAL_SURFACE ( 'NONE', #60, 7.999999999999998224, 0.2617993877991502960 ) ;
#118 = CALENDAR_DATE ( 2021, 8, 12 ) ;
#119 = ORIENTED_EDGE ( 'NONE', *, *, #101, .T. ) ;
#120 = LOCAL_TIME ( 10, 33, 37.00000000000000000, #63 ) ;
#121 = FACE_OUTER_BOUND ( 'NONE', #168, .T. ) ;
#122 = PRODUCT ( '372673', '372673', '', ( #75 ) ) ;
#123 = CC_DESIGN_DATE_AND_TIME_ASSIGNMENT ( #180, #128, ( #62 ) ) ;
#124 = PERSON_AND_ORGANIZATION ( #174, #150 ) ;
#125 = DIRECTION ( 'NONE',  ( -4.456761796588770537E-31, -1.000000000000000000, -1.276467311168695512E-16 ) ) ;
#126 = CIRCLE ( 'NONE', #184, 4.000000000000000000 ) ;
#127 = FACE_OUTER_BOUND ( 'NONE', #105, .T. ) ;
#128 = DATE_TIME_ROLE ( 'creation_date' ) ;
#129 = CARTESIAN_POINT ( 'NONE',  ( 0.0000000000000000000, 0.0000000000000000000, 0.0000000000000000000 ) ) ;
#130 = DIRECTION ( 'NONE',  ( 3.491481338843133355E-15, -1.224646799147353207E-16, 1.000000000000000000 ) ) ;
#131 =( LENGTH_UNIT ( ) NAMED_UNIT ( * ) SI_UNIT ( .MILLI., .METRE. ) );
#132 = CARTESIAN_POINT ( 'NONE',  ( -6.413786353521998128E-31, 2.249653418127172114E-32, -1.836981421658447292E-16 ) ) ;
#133 = CALENDAR_DATE ( 2021, 8, 12 ) ;
#134 = MANIFOLD_SOLID_BREP ( 'Corps-Déplacer/Copier1[2]', #136 ) ;
#135 = EDGE_CURVE ( 'NONE', #80, #80, #156, .T. ) ;
#136 = CLOSED_SHELL ( 'NONE', ( #12, #48, #194 ) ) ;
#137 = ORIENTED_EDGE ( 'NONE', *, *, #204, .F. ) ;
#138 = DIRECTION ( 'NONE',  ( -4.456761796588770537E-31, -1.000000000000000000, -1.276467311168695512E-16 ) ) ;
#139 = ADVANCED_FACE ( 'NONE', ( #45 ), #104, .F. ) ;
#140 = CARTESIAN_POINT ( 'NONE',  ( 2.793185071074506684E-13, 2.399615652258957667E-32, 80.00000000000000000 ) ) ;
#141 = DATE_TIME_ROLE ( 'classification_date' ) ;
#142 = APPROVAL_DATE_TIME ( #2, #6 ) ;
#143 = APPROVAL ( #112, 'UNSPECIFIED' ) ;
#144 = PERSON_AND_ORGANIZATION_ROLE ( 'creator' ) ;
#145 = APPLICATION_PROTOCOL_DEFINITION ( 'international standard', 'config_control_design', 1994, #72 ) ;
#146 = PLANE ( 'NONE',  #108 ) ;
#147 = MANIFOLD_SOLID_BREP ( 'Corps-Déplacer/Copier1[1]', #208 ) ;
#148 = APPROVAL_DATE_TIME ( #193, #143 ) ;
#149 = CARTESIAN_POINT ( 'NONE',  ( 1.047444401652940007E-13, 2.999519565323705910E-32, 30.00000000000000000 ) ) ;
#150 = ORGANIZATION ( 'UNSPECIFIED', 'UNSPECIFIED', '' ) ;
#151 = CONICAL_SURFACE ( 'NONE', #74, 3.200000000000000622, 0.7853981633974510546 ) ;
#152 = EDGE_LOOP ( 'NONE', ( #15 ) ) ;
#153 = DIRECTION ( 'NONE',  ( 4.275831445896958607E-31, 1.000000000000000000, 1.224646799147353207E-16 ) ) ;
#154 = DIRECTION ( 'NONE',  ( -3.491481338843133355E-15, 1.276467311168695266E-16, -1.000000000000000000 ) ) ;
#155 = ORIENTED_EDGE ( 'NONE', *, *, #135, .F. ) ;
#156 = CIRCLE ( 'NONE', #215, 2.999999999999997335 ) ;
#157 = EDGE_LOOP ( 'NONE', ( #216 ) ) ;
#158 = CC_DESIGN_PERSON_AND_ORGANIZATION_ASSIGNMENT ( #54, #163, ( #62 ) ) ;
#159 = DESIGN_CONTEXT ( 'detailed design', #88, 'design' ) ;
#160 = COORDINATED_UNIVERSAL_TIME_OFFSET ( 1, 0, .AHEAD. ) ;
#161 = CARTESIAN_POINT ( 'NONE',  ( 1.047444401652940007E-13, 2.999519565323705910E-32, 30.00000000000000000 ) ) ;
#162 = LOCAL_TIME ( 10, 33, 37.00000000000000000, #197 ) ;
#163 = PERSON_AND_ORGANIZATION_ROLE ( 'creator' ) ;
#164 = DIRECTION ( 'NONE',  ( -4.275831445896958607E-31, -1.000000000000000000, -1.224646799147353207E-16 ) ) ;
#165 = CC_DESIGN_APPROVAL ( #42, ( #62 ) ) ;
#166 = CYLINDRICAL_SURFACE ( 'NONE', #192, 2.999999999999996891 ) ;
#167 = ORIENTED_EDGE ( 'NONE', *, *, #204, .T. ) ;
#168 = EDGE_LOOP ( 'NONE', ( #137 ) ) ;
#169 = CC_DESIGN_PERSON_AND_ORGANIZATION_ASSIGNMENT ( #64, #51, ( #177 ) ) ;
#170 = APPROVAL_PERSON_ORGANIZATION ( #116, #42, #25 ) ;
#171 = SECURITY_CLASSIFICATION_LEVEL ( 'unclassified' ) ;
#172 = DIRECTION ( 'NONE',  ( 4.275831445896957731E-31, 1.000000000000000000, 1.224646799147353207E-16 ) ) ;
#173 = CARTESIAN_POINT ( 'NONE',  ( 1.698963689164996959E-13, -6.211322363247279349E-15, 48.66025403784432513 ) ) ;
#174 = PERSON ( 'UNSPECIFIED', 'UNSPECIFIED', 'UNSPECIFIED', ('UNSPECIFIED'), ('UNSPECIFIED'), ('UNSPECIFIED') ) ;
#175 = CARTESIAN_POINT ( 'NONE',  ( 1.177748259155351246E-13, -4.000000000000000888, 33.73205080756886076 ) ) ;
#176 = DIRECTION ( 'NONE',  ( 0.0000000000000000000, -1.000000000000000000, 0.0000000000000000000 ) ) ;
#177 = SECURITY_CLASSIFICATION ( '', '', #171 ) ;
#178 = DIRECTION ( 'NONE',  ( -3.491481338843133355E-15, 1.224646799147353207E-16, -1.000000000000000000 ) ) ;
#179 = AXIS2_PLACEMENT_3D ( 'NONE', #23, #96, #10 ) ;
#180 = DATE_AND_TIME ( #118, #162 ) ;
#181 = ORIENTED_EDGE ( 'NONE', *, *, #26, .T. ) ;
#182 = VERTEX_POINT ( 'NONE', #107 ) ;
#183 = CARTESIAN_POINT ( 'NONE',  ( 1.228470328561538836E-30, -6.836089494465361613E-32, 3.518478861378019148E-16 ) ) ;
#184 = AXIS2_PLACEMENT_3D ( 'NONE', #89, #34, #27 ) ;
#185 = DIRECTION ( 'NONE',  ( -3.491481338843133355E-15, 1.224646799147353207E-16, -1.000000000000000000 ) ) ;
#186 = EDGE_CURVE ( 'NONE', #195, #195, #221, .T. ) ;
#187 = APPROVAL_PERSON_ORGANIZATION ( #36, #143, #73 ) ;
#188 = CALENDAR_DATE ( 2021, 8, 12 ) ;
#189 = SHAPE_DEFINITION_REPRESENTATION ( #77, #97 ) ;
#190 = DIRECTION ( 'NONE',  ( -3.491481338843133355E-15, 1.224646799147353207E-16, -1.000000000000000000 ) ) ;
#191 = FACE_BOUND ( 'NONE', #83, .T. ) ;
#192 = AXIS2_PLACEMENT_3D ( 'NONE', #219, #91, #125 ) ;
#193 = DATE_AND_TIME ( #71, #50 ) ;
#194 = ADVANCED_FACE ( 'NONE', ( #68 ), #40, .F. ) ;
#195 = VERTEX_POINT ( 'NONE', #175 ) ;
#196 = AXIS2_PLACEMENT_3D ( 'NONE', #8, #190, #37 ) ;
#197 = COORDINATED_UNIVERSAL_TIME_OFFSET ( 1, 0, .AHEAD. ) ;
#198 = CC_DESIGN_PERSON_AND_ORGANIZATION_ASSIGNMENT ( #124, #61, ( #109 ) ) ;
#199 = FACE_OUTER_BOUND ( 'NONE', #200, .T. ) ;
#200 = EDGE_LOOP ( 'NONE', ( #41 ) ) ;
#201 = LOCAL_TIME ( 10, 33, 37.00000000000000000, #38 ) ;
#202 = CARTESIAN_POINT ( 'NONE',  ( 1.047444401652940007E-13, -3.829401933506085895E-15, 30.00000000000000000 ) ) ;
#203 = CC_DESIGN_PERSON_AND_ORGANIZATION_ASSIGNMENT ( #211, #144, ( #109 ) ) ;
#204 = EDGE_CURVE ( 'NONE', #52, #52, #55, .T. ) ;
#205 = PERSON_AND_ORGANIZATION ( #174, #150 ) ;
#206 = DATE_AND_TIME ( #188, #5 ) ;
#207 = FACE_OUTER_BOUND ( 'NONE', #31, .T. ) ;
#208 = CLOSED_SHELL ( 'NONE', ( #86, #33, #139, #20, #14 ) ) ;
#209 = APPLICATION_PROTOCOL_DEFINITION ( 'international standard', 'config_control_design', 1994, #88 ) ;
#210 = FACE_OUTER_BOUND ( 'NONE', #79, .T. ) ;
#211 = PERSON_AND_ORGANIZATION ( #174, #150 ) ;
#212 = AXIS2_PLACEMENT_3D ( 'NONE', #102, #39, #176 ) ;
#213 = APPROVAL_PERSON_ORGANIZATION ( #205, #6, #46 ) ;
#214 = DATE_AND_TIME ( #133, #201 ) ;
#215 = AXIS2_PLACEMENT_3D ( 'NONE', #202, #223, #58 ) ;
#216 = ORIENTED_EDGE ( 'NONE', *, *, #186, .F. ) ;
#217 = ORIENTED_EDGE ( 'NONE', *, *, #135, .T. ) ;
#218 = DIRECTION ( 'NONE',  ( 3.491481338843133355E-15, -1.276467311168695266E-16, 1.000000000000000000 ) ) ;
#219 = CARTESIAN_POINT ( 'NONE',  ( -6.413839710158237013E-31, 0.0000000000000000000, -1.836996703606440502E-16 ) ) ;
#220 = EDGE_LOOP ( 'NONE', ( #119 ) ) ;
#221 = CIRCLE ( 'NONE', #9, 3.999999999999996447 ) ;
#222 = ORIENTED_EDGE ( 'NONE', *, *, #26, .F. ) ;
#223 = DIRECTION ( 'NONE',  ( 3.491481338843133355E-15, -1.276467311168695266E-16, 1.000000000000000000 ) ) ;
ENDSEC;
END-ISO-10303-21;
