ISO-10303-21;
HEADER;
FILE_DESCRIPTION (( 'STEP AP203' ),
    '1' );
FILE_NAME ('372672.step',
    '2021-12-08T09:33:36',
    ( '' ),
    ( '' ),
    'SwSTEP 2.0',
    'SolidWorks 2019',
    '' );
FILE_SCHEMA (( 'CONFIG_CONTROL_DESIGN' ));
ENDSEC;

DATA;
#1 = COORDINATED_UNIVERSAL_TIME_OFFSET ( 1, 0, .AHEAD. ) ;
#2 = CIRCLE ( 'NONE', #215, 2.999999999999996447 ) ;
#3 = DATE_TIME_ROLE ( 'classification_date' ) ;
#4 = APPROVAL_ROLE ( '' ) ;
#5 = PERSON_AND_ORGANIZATION ( #90, #71 ) ;
#6 = CIRCLE ( 'NONE', #122, 2.999999999999997780 ) ;
#7 = CARTESIAN_POINT ( 'NONE',  ( 8.728703347107833388E-14, 2.999519565323705910E-32, 25.00000000000000000 ) ) ;
#8 = APPLICATION_CONTEXT ( 'configuration controlled 3d designs of mechanical parts and assemblies' ) ;
#9 = MANIFOLD_SOLID_BREP ( 'Corps-Déplacer/Copier1[1]', #184 ) ;
#10 = CC_DESIGN_PERSON_AND_ORGANIZATION_ASSIGNMENT ( #141, #16, ( #31 ) ) ;
#11 = CARTESIAN_POINT ( 'NONE',  ( 0.0000000000000000000, 0.0000000000000000000, 0.0000000000000000000 ) ) ;
#12 = ORIENTED_EDGE ( 'NONE', *, *, #113, .F. ) ;
#13 = ORIENTED_EDGE ( 'NONE', *, *, #35, .T. ) ;
#14 = EDGE_CURVE ( 'NONE', #157, #157, #212, .T. ) ;
#15 = APPROVAL_STATUS ( 'not_yet_approved' ) ;
#16 = PERSON_AND_ORGANIZATION_ROLE ( 'creator' ) ;
#17 = APPROVAL_STATUS ( 'not_yet_approved' ) ;
#18 = PERSON_AND_ORGANIZATION ( #90, #71 ) ;
#19 = CIRCLE ( 'NONE', #172, 4.000000000000000000 ) ;
#20 = AXIS2_PLACEMENT_3D ( 'NONE', #219, #59, #134 ) ;
#21 = DIRECTION ( 'NONE',  ( -4.456761796588770537E-31, -1.000000000000000000, -1.276467311168695266E-16 ) ) ;
#22 = ADVANCED_BREP_SHAPE_REPRESENTATION ( '372672', ( #9, #79, #20 ), #161 ) ;
#23 = FACE_BOUND ( 'NONE', #179, .T. ) ;
#24 = DIRECTION ( 'NONE',  ( -3.491481338843133355E-15, 1.224646799147353207E-16, -1.000000000000000000 ) ) ;
#25 = ADVANCED_FACE ( 'NONE', ( #45 ), #166, .F. ) ;
#26 = EDGE_LOOP ( 'NONE', ( #12 ) ) ;
#27 = EDGE_LOOP ( 'NONE', ( #147 ) ) ;
#28 = UNCERTAINTY_MEASURE_WITH_UNIT (LENGTH_MEASURE( 1.000000000000000082E-05 ), #133, 'distance_accuracy_value', 'NONE');
#29 = EDGE_LOOP ( 'NONE', ( #200 ) ) ;
#30 = VERTEX_POINT ( 'NONE', #93 ) ;
#31 = PRODUCT_DEFINITION_FORMATION_WITH_SPECIFIED_SOURCE ( 'ANY', '', #180, .NOT_KNOWN. ) ;
#32 = COORDINATED_UNIVERSAL_TIME_OFFSET ( 1, 0, .AHEAD. ) ;
#33 = EDGE_CURVE ( 'NONE', #116, #116, #160, .T. ) ;
#34 = APPROVAL_ROLE ( '' ) ;
#35 = EDGE_CURVE ( 'NONE', #216, #216, #129, .T. ) ;
#36 = DIRECTION ( 'NONE',  ( 3.491481338843133355E-15, -1.276467311168695266E-16, 1.000000000000000000 ) ) ;
#37 = AXIS2_PLACEMENT_3D ( 'NONE', #198, #149, #63 ) ;
#38 = FACE_OUTER_BOUND ( 'NONE', #197, .T. ) ;
#39 = CC_DESIGN_PERSON_AND_ORGANIZATION_ASSIGNMENT ( #18, #102, ( #83 ) ) ;
#40 = DIRECTION ( 'NONE',  ( 3.491481338843133355E-15, -1.276467311168695266E-16, 1.000000000000000000 ) ) ;
#41 = FACE_OUTER_BOUND ( 'NONE', #27, .T. ) ;
#42 = DIRECTION ( 'NONE',  ( 3.491481338843133355E-15, -1.224646799147353207E-16, 1.000000000000000000 ) ) ;
#43 = CARTESIAN_POINT ( 'NONE',  ( -1.085582104150908805E-31, -2.999999999999996447, -3.109230721280627038E-17 ) ) ;
#44 = AXIS2_PLACEMENT_3D ( 'NONE', #130, #42, #163 ) ;
#45 = FACE_OUTER_BOUND ( 'NONE', #26, .T. ) ;
#46 = CC_DESIGN_DATE_AND_TIME_ASSIGNMENT ( #153, #186, ( #83 ) ) ;
#47 = DIRECTION ( 'NONE',  ( 0.0000000000000000000, -1.000000000000000000, 0.0000000000000000000 ) ) ;
#48 = CC_DESIGN_APPROVAL ( #87, ( #65 ) ) ;
#49 = PERSON_AND_ORGANIZATION ( #90, #71 ) ;
#50 = APPLICATION_PROTOCOL_DEFINITION ( 'international standard', 'config_control_design', 1994, #106 ) ;
#51 = DATE_AND_TIME ( #205, #108 ) ;
#52 = PERSON_AND_ORGANIZATION_ROLE ( 'design_owner' ) ;
#53 = CARTESIAN_POINT ( 'NONE',  ( -6.413839710158237013E-31, 0.0000000000000000000, -1.836996703606440502E-16 ) ) ;
#54 = AXIS2_PLACEMENT_3D ( 'NONE', #174, #183, #195 ) ;
#55 = VERTEX_POINT ( 'NONE', #221 ) ;
#56 = MECHANICAL_CONTEXT ( 'NONE', #8, 'mechanical' ) ;
#57 = DIRECTION ( 'NONE',  ( 0.0000000000000000000, 1.000000000000000000, 0.0000000000000000000 ) ) ;
#58 = AXIS2_PLACEMENT_3D ( 'NONE', #182, #196, #96 ) ;
#59 = DIRECTION ( 'NONE',  ( 0.0000000000000000000, 0.0000000000000000000, 1.000000000000000000 ) ) ;
#60 = APPROVAL_PERSON_ORGANIZATION ( #5, #170, #34 ) ;
#61 = CARTESIAN_POINT ( 'NONE',  ( -6.413786353521998128E-31, 2.249653418127172114E-32, -1.836981421658447292E-16 ) ) ;
#62 = CARTESIAN_POINT ( 'NONE',  ( 1.003174192213194578E-13, -4.000000000000000000, 28.73205080756886076 ) ) ;
#63 = DIRECTION ( 'NONE',  ( 0.0000000000000000000, -1.000000000000000000, 0.0000000000000000000 ) ) ;
#64 = CARTESIAN_POINT ( 'NONE',  ( 2.793185071074506684E-13, -9.797174393178826052E-15, 80.00000000000000000 ) ) ;
#65 = SECURITY_CLASSIFICATION ( '', '', #208 ) ;
#66 = PERSON_AND_ORGANIZATION ( #90, #71 ) ;
#67 = APPROVAL_DATE_TIME ( #51, #87 ) ;
#68 = DATE_AND_TIME ( #139, #85 ) ;
#69 = CC_DESIGN_DATE_AND_TIME_ASSIGNMENT ( #80, #3, ( #65 ) ) ;
#70 = APPROVAL_DATE_TIME ( #68, #170 ) ;
#71 = ORGANIZATION ( 'UNSPECIFIED', 'UNSPECIFIED', '' ) ;
#72 = DIRECTION ( 'NONE',  ( 0.0000000000000000000, -1.000000000000000000, 0.0000000000000000000 ) ) ;
#73 = DIRECTION ( 'NONE',  ( -3.491481338843133355E-15, 1.224646799147353207E-16, -1.000000000000000000 ) ) ;
#74 = DIRECTION ( 'NONE',  ( 3.491481338843133355E-15, -1.224646799147353207E-16, 1.000000000000000000 ) ) ;
#75 = EDGE_CURVE ( 'NONE', #30, #30, #6, .T. ) ;
#76 = EDGE_LOOP ( 'NONE', ( #181 ) ) ;
#77 = ORIENTED_EDGE ( 'NONE', *, *, #75, .F. ) ;
#78 = ADVANCED_FACE ( 'NONE', ( #41, #89 ), #158, .T. ) ;
#79 = MANIFOLD_SOLID_BREP ( 'Corps-Déplacer/Copier1[2]', #138 ) ;
#80 = DATE_AND_TIME ( #101, #194 ) ;
#81 = PERSON_AND_ORGANIZATION ( #90, #71 ) ;
#82 = COORDINATED_UNIVERSAL_TIME_OFFSET ( 1, 0, .AHEAD. ) ;
#83 = PRODUCT_DEFINITION ( 'UNKNOWN', '', #31, #164 ) ;
#84 = CALENDAR_DATE ( 2021, 8, 12 ) ;
#85 = LOCAL_TIME ( 10, 33, 36.00000000000000000, #82 ) ;
#86 = CYLINDRICAL_SURFACE ( 'NONE', #151, 2.999999999999997335 ) ;
#87 = APPROVAL ( #152, 'UNSPECIFIED' ) ;
#88 = FACE_BOUND ( 'NONE', #165, .T. ) ;
#89 = FACE_OUTER_BOUND ( 'NONE', #117, .T. ) ;
#90 = PERSON ( 'UNSPECIFIED', 'UNSPECIFIED', 'UNSPECIFIED', ('UNSPECIFIED'), ('UNSPECIFIED'), ('UNSPECIFIED') ) ;
#91 = AXIS2_PLACEMENT_3D ( 'NONE', #61, #74, #223 ) ;
#92 = CC_DESIGN_APPROVAL ( #170, ( #31 ) ) ;
#93 = CARTESIAN_POINT ( 'NONE',  ( 8.728703347107833388E-14, -3.000000000000000888, 25.00000000000000000 ) ) ;
#94 = EDGE_LOOP ( 'NONE', ( #77 ) ) ;
#95 = CARTESIAN_POINT ( 'NONE',  ( 8.728703347107833388E-14, -3.000000000000000888, 25.00000000000000000 ) ) ;
#96 = DIRECTION ( 'NONE',  ( 0.0000000000000000000, -1.000000000000000000, 0.0000000000000000000 ) ) ;
#97 = AXIS2_PLACEMENT_3D ( 'NONE', #11, #73, #218 ) ;
#98 = CC_DESIGN_SECURITY_CLASSIFICATION ( #65, ( #31 ) ) ;
#99 = EDGE_LOOP ( 'NONE', ( #112 ) ) ;
#100 = ADVANCED_FACE ( 'NONE', ( #145 ), #217, .T. ) ;
#101 = CALENDAR_DATE ( 2021, 8, 12 ) ;
#102 = PERSON_AND_ORGANIZATION_ROLE ( 'creator' ) ;
#103 = APPROVAL_DATE_TIME ( #120, #144 ) ;
#104 = DIRECTION ( 'NONE',  ( 0.0000000000000000000, 1.000000000000000000, 0.0000000000000000000 ) ) ;
#105 = PLANE ( 'NONE',  #54 ) ;
#106 = APPLICATION_CONTEXT ( 'configuration controlled 3d designs of mechanical parts and assemblies' ) ;
#107 = CARTESIAN_POINT ( 'NONE',  ( 2.765253220363761617E-13, -9.699202649247037618E-15, 79.20000000000000284 ) ) ;
#108 = LOCAL_TIME ( 10, 33, 36.00000000000000000, #140 ) ;
#109 = FACE_OUTER_BOUND ( 'NONE', #99, .T. ) ;
#110 = CC_DESIGN_PERSON_AND_ORGANIZATION_ASSIGNMENT ( #49, #123, ( #65 ) ) ;
#111 = ORIENTED_EDGE ( 'NONE', *, *, #33, .F. ) ;
#112 = ORIENTED_EDGE ( 'NONE', *, *, #14, .F. ) ;
#113 = EDGE_CURVE ( 'NONE', #214, #214, #2, .T. ) ;
#114 = ORIENTED_EDGE ( 'NONE', *, *, #33, .T. ) ;
#115 = ORIENTED_EDGE ( 'NONE', *, *, #175, .F. ) ;
#116 = VERTEX_POINT ( 'NONE', #146 ) ;
#117 = EDGE_LOOP ( 'NONE', ( #135 ) ) ;
#118 = AXIS2_PLACEMENT_3D ( 'NONE', #190, #40, #72 ) ;
#119 = PERSON_AND_ORGANIZATION ( #90, #71 ) ;
#120 = DATE_AND_TIME ( #173, #156 ) ;
#121 = PERSON_AND_ORGANIZATION ( #90, #71 ) ;
#122 = AXIS2_PLACEMENT_3D ( 'NONE', #137, #136, #47 ) ;
#123 = PERSON_AND_ORGANIZATION_ROLE ( 'classification_officer' ) ;
#124 = DIRECTION ( 'NONE',  ( -3.491481338843133355E-15, 1.224646799147353207E-16, -1.000000000000000000 ) ) ;
#125 = AXIS2_PLACEMENT_3D ( 'NONE', #7, #210, #189 ) ;
#126 = FACE_OUTER_BOUND ( 'NONE', #76, .T. ) ;
#127 = PRODUCT_DEFINITION_SHAPE ( 'NONE', 'NONE',  #83 ) ;
#128 = CC_DESIGN_PERSON_AND_ORGANIZATION_ASSIGNMENT ( #121, #52, ( #180 ) ) ;
#129 = CIRCLE ( 'NONE', #37, 3.999999999999996447 ) ;
#130 = CARTESIAN_POINT ( 'NONE',  ( 8.728703347107833388E-14, 2.999519565323705910E-32, 25.00000000000000000 ) ) ;
#131 = PRODUCT_RELATED_PRODUCT_CATEGORY ( 'detail', '', ( #180 ) ) ;
#132 = CC_DESIGN_APPROVAL ( #144, ( #83 ) ) ;
#133 =( LENGTH_UNIT ( ) NAMED_UNIT ( * ) SI_UNIT ( .MILLI., .METRE. ) );
#134 = DIRECTION ( 'NONE',  ( 1.000000000000000000, 0.0000000000000000000, 0.0000000000000000000 ) ) ;
#135 = ORIENTED_EDGE ( 'NONE', *, *, #35, .F. ) ;
#136 = DIRECTION ( 'NONE',  ( 3.491481338843133355E-15, -1.276467311168695266E-16, 1.000000000000000000 ) ) ;
#137 = CARTESIAN_POINT ( 'NONE',  ( 8.728703347107833388E-14, -3.191168277921738509E-15, 25.00000000000000000 ) ) ;
#138 = CLOSED_SHELL ( 'NONE', ( #100, #192, #25 ) ) ;
#139 = CALENDAR_DATE ( 2021, 8, 12 ) ;
#140 = COORDINATED_UNIVERSAL_TIME_OFFSET ( 1, 0, .AHEAD. ) ;
#141 = PERSON_AND_ORGANIZATION ( #90, #71 ) ;
#142 = AXIS2_PLACEMENT_3D ( 'NONE', #64, #220, #57 ) ;
#143 = DIRECTION ( 'NONE',  ( -4.456761796588770537E-31, -1.000000000000000000, -1.276467311168695512E-16 ) ) ;
#144 = APPROVAL ( #17, 'UNSPECIFIED' ) ;
#145 = FACE_OUTER_BOUND ( 'NONE', #29, .T. ) ;
#146 = CARTESIAN_POINT ( 'NONE',  ( 2.793185071074506684E-13, 3.199999999999990408, 80.00000000000000000 ) ) ;
#147 = ORIENTED_EDGE ( 'NONE', *, *, #175, .T. ) ;
#148 = APPROVAL_PERSON_ORGANIZATION ( #81, #87, #4 ) ;
#149 = DIRECTION ( 'NONE',  ( -3.491481338843133355E-15, 1.276467311168695266E-16, -1.000000000000000000 ) ) ;
#150 = ADVANCED_FACE ( 'NONE', ( #88, #213 ), #193, .T. ) ;
#151 = AXIS2_PLACEMENT_3D ( 'NONE', #53, #36, #21 ) ;
#152 = APPROVAL_STATUS ( 'not_yet_approved' ) ;
#153 = DATE_AND_TIME ( #84, #188 ) ;
#154 = SHAPE_DEFINITION_REPRESENTATION ( #127, #22 ) ;
#155 = PLANE ( 'NONE',  #125 ) ;
#156 = LOCAL_TIME ( 10, 33, 36.00000000000000000, #1 ) ;
#157 = VERTEX_POINT ( 'NONE', #95 ) ;
#158 = CYLINDRICAL_SURFACE ( 'NONE', #97, 3.999999999999996447 ) ;
#159 = CONICAL_SURFACE ( 'NONE', #201, 3.200000000000000622, 0.7853981633974510546 ) ;
#160 = CIRCLE ( 'NONE', #142, 3.200000000000000622 ) ;
#161 =( GEOMETRIC_REPRESENTATION_CONTEXT ( 3 ) GLOBAL_UNCERTAINTY_ASSIGNED_CONTEXT ( ( #28 ) ) GLOBAL_UNIT_ASSIGNED_CONTEXT ( ( #133, #162, #168 ) ) REPRESENTATION_CONTEXT ( 'NONE', 'WORKASPACE' ) );
#162 =( NAMED_UNIT ( * ) PLANE_ANGLE_UNIT ( ) SI_UNIT ( $, .RADIAN. ) );
#163 = DIRECTION ( 'NONE',  ( -4.275831445896958607E-31, -1.000000000000000000, -1.224646799147353207E-16 ) ) ;
#164 = DESIGN_CONTEXT ( 'detailed design', #106, 'design' ) ;
#165 = EDGE_LOOP ( 'NONE', ( #178 ) ) ;
#166 = PLANE ( 'NONE',  #91 ) ;
#167 = ADVANCED_FACE ( 'NONE', ( #209, #23 ), #159, .T. ) ;
#168 =( NAMED_UNIT ( * ) SI_UNIT ( $, .STERADIAN. ) SOLID_ANGLE_UNIT ( ) );
#169 = EDGE_LOOP ( 'NONE', ( #13 ) ) ;
#170 = APPROVAL ( #15, 'UNSPECIFIED' ) ;
#171 = COORDINATED_UNIVERSAL_TIME_OFFSET ( 1, 0, .AHEAD. ) ;
#172 = AXIS2_PLACEMENT_3D ( 'NONE', #107, #24, #176 ) ;
#173 = CALENDAR_DATE ( 2021, 8, 12 ) ;
#174 = CARTESIAN_POINT ( 'NONE',  ( 2.793185071074506684E-13, 2.399615652258957667E-32, 80.00000000000000000 ) ) ;
#175 = EDGE_CURVE ( 'NONE', #55, #55, #19, .T. ) ;
#176 = DIRECTION ( 'NONE',  ( 0.0000000000000000000, 1.000000000000000000, 0.0000000000000000000 ) ) ;
#177 = FACE_OUTER_BOUND ( 'NONE', #94, .T. ) ;
#178 = ORIENTED_EDGE ( 'NONE', *, *, #75, .T. ) ;
#179 = EDGE_LOOP ( 'NONE', ( #114 ) ) ;
#180 = PRODUCT ( '372672', '372672', '', ( #56 ) ) ;
#181 = ORIENTED_EDGE ( 'NONE', *, *, #113, .T. ) ;
#182 = CARTESIAN_POINT ( 'NONE',  ( 8.728703347107833388E-14, -3.191168277921738509E-15, 25.00000000000000000 ) ) ;
#183 = DIRECTION ( 'NONE',  ( -3.491481338843133355E-15, 1.224646799147353207E-16, -1.000000000000000000 ) ) ;
#184 = CLOSED_SHELL ( 'NONE', ( #78, #167, #211, #150, #206 ) ) ;
#185 = DIRECTION ( 'NONE',  ( 3.491481338843133355E-15, -1.276467311168695266E-16, 1.000000000000000000 ) ) ;
#186 = DATE_TIME_ROLE ( 'creation_date' ) ;
#187 = CC_DESIGN_PERSON_AND_ORGANIZATION_ASSIGNMENT ( #119, #202, ( #31 ) ) ;
#188 = LOCAL_TIME ( 10, 33, 36.00000000000000000, #171 ) ;
#189 = DIRECTION ( 'NONE',  ( -4.275831445896958607E-31, -1.000000000000000000, -1.224646799147353207E-16 ) ) ;
#190 = CARTESIAN_POINT ( 'NONE',  ( 1.524389622222840165E-13, -5.573088707662931173E-15, 43.66025403784431802 ) ) ;
#191 = CARTESIAN_POINT ( 'NONE',  ( 2.793185071074506684E-13, -9.797174393178826052E-15, 80.00000000000000000 ) ) ;
#192 = ADVANCED_FACE ( 'NONE', ( #126, #109 ), #86, .T. ) ;
#193 = CONICAL_SURFACE ( 'NONE', #118, 7.999999999999996447, 0.2617993877991502960 ) ;
#194 = LOCAL_TIME ( 10, 33, 36.00000000000000000, #32 ) ;
#195 = DIRECTION ( 'NONE',  ( 4.275831445896958607E-31, 1.000000000000000000, 1.224646799147353207E-16 ) ) ;
#196 = DIRECTION ( 'NONE',  ( 3.491481338843133355E-15, -1.276467311168695266E-16, 1.000000000000000000 ) ) ;
#197 = EDGE_LOOP ( 'NONE', ( #111 ) ) ;
#198 = CARTESIAN_POINT ( 'NONE',  ( 1.003174192213194578E-13, -3.667552363869976253E-15, 28.73205080756886076 ) ) ;
#199 = APPLICATION_PROTOCOL_DEFINITION ( 'international standard', 'config_control_design', 1994, #8 ) ;
#200 = ORIENTED_EDGE ( 'NONE', *, *, #14, .T. ) ;
#201 = AXIS2_PLACEMENT_3D ( 'NONE', #191, #124, #104 ) ;
#202 = PERSON_AND_ORGANIZATION_ROLE ( 'design_supplier' ) ;
#203 = APPROVAL_ROLE ( '' ) ;
#204 = CARTESIAN_POINT ( 'NONE',  ( 1.228470328561538836E-30, -6.836089494465361613E-32, 3.518478861378019148E-16 ) ) ;
#205 = CALENDAR_DATE ( 2021, 8, 12 ) ;
#206 = ADVANCED_FACE ( 'NONE', ( #177 ), #155, .F. ) ;
#207 = APPROVAL_PERSON_ORGANIZATION ( #66, #144, #203 ) ;
#208 = SECURITY_CLASSIFICATION_LEVEL ( 'unclassified' ) ;
#209 = FACE_OUTER_BOUND ( 'NONE', #222, .T. ) ;
#210 = DIRECTION ( 'NONE',  ( 3.491481338843133355E-15, -1.224646799147353207E-16, 1.000000000000000000 ) ) ;
#211 = ADVANCED_FACE ( 'NONE', ( #38 ), #105, .F. ) ;
#212 = CIRCLE ( 'NONE', #58, 2.999999999999997780 ) ;
#213 = FACE_OUTER_BOUND ( 'NONE', #169, .T. ) ;
#214 = VERTEX_POINT ( 'NONE', #43 ) ;
#215 = AXIS2_PLACEMENT_3D ( 'NONE', #204, #185, #143 ) ;
#216 = VERTEX_POINT ( 'NONE', #62 ) ;
#217 = PLANE ( 'NONE',  #44 ) ;
#218 = DIRECTION ( 'NONE',  ( 4.275831445896957731E-31, 1.000000000000000000, 1.224646799147353207E-16 ) ) ;
#219 = CARTESIAN_POINT ( 'NONE',  ( 0.0000000000000000000, 0.0000000000000000000, 0.0000000000000000000 ) ) ;
#220 = DIRECTION ( 'NONE',  ( -3.491481338843133355E-15, 1.224646799147353207E-16, -1.000000000000000000 ) ) ;
#221 = CARTESIAN_POINT ( 'NONE',  ( 2.765253220363761617E-13, 3.999999999999990674, 79.20000000000000284 ) ) ;
#222 = EDGE_LOOP ( 'NONE', ( #115 ) ) ;
#223 = DIRECTION ( 'NONE',  ( -4.275831445896958607E-31, -1.000000000000000000, -1.224646799147353207E-16 ) ) ;
ENDSEC;
END-ISO-10303-21;
