ISO-10303-21;
HEADER;
FILE_DESCRIPTION (( 'STEP AP203' ),
    '1' );
FILE_NAME ('372670.step',
    '2021-12-08T09:33:35',
    ( '' ),
    ( '' ),
    'SwSTEP 2.0',
    'SolidWorks 2019',
    '' );
FILE_SCHEMA (( 'CONFIG_CONTROL_DESIGN' ));
ENDSEC;

DATA;
#1 = CALENDAR_DATE ( 2021, 8, 12 ) ;
#2 = PERSON_AND_ORGANIZATION ( #42, #201 ) ;
#3 = CALENDAR_DATE ( 2021, 8, 12 ) ;
#4 = COORDINATED_UNIVERSAL_TIME_OFFSET ( 1, 0, .AHEAD. ) ;
#5 = CC_DESIGN_APPROVAL ( #12, ( #93 ) ) ;
#6 = EDGE_LOOP ( 'NONE', ( #173 ) ) ;
#7 = DIRECTION ( 'NONE',  ( -3.491481338843133355E-15, 1.224646799147353207E-16, -1.000000000000000000 ) ) ;
#8 = AXIS2_PLACEMENT_3D ( 'NONE', #45, #153, #75 ) ;
#9 = DIRECTION ( 'NONE',  ( 3.491481338843133355E-15, -1.224646799147353207E-16, 1.000000000000000000 ) ) ;
#10 = SECURITY_CLASSIFICATION ( '', '', #191 ) ;
#11 = DIRECTION ( 'NONE',  ( 3.491481338843133355E-15, -1.224646799147353207E-16, 1.000000000000000000 ) ) ;
#12 = APPROVAL ( #113, 'UNSPECIFIED' ) ;
#13 = CIRCLE ( 'NONE', #62, 2.999999999999990674 ) ;
#14 = FACE_OUTER_BOUND ( 'NONE', #71, .T. ) ;
#15 = CARTESIAN_POINT ( 'NONE',  ( -4.275832226095729073E-31, 2.999999999999990674, -1.224647022605161898E-16 ) ) ;
#16 = CARTESIAN_POINT ( 'NONE',  ( 1.326762908760390423E-13, 2.999999999999991118, 38.00000000000000000 ) ) ;
#17 = CALENDAR_DATE ( 2021, 8, 12 ) ;
#18 = MANIFOLD_SOLID_BREP ( 'Corps-Déplacer/Copier1[2]', #156 ) ;
#19 = LOCAL_TIME ( 10, 33, 35.00000000000000000, #4 ) ;
#20 = COORDINATED_UNIVERSAL_TIME_OFFSET ( 1, 0, .AHEAD. ) ;
#21 = PERSON_AND_ORGANIZATION_ROLE ( 'design_owner' ) ;
#22 = PERSON_AND_ORGANIZATION ( #42, #201 ) ;
#23 = MANIFOLD_SOLID_BREP ( 'Corps-Déplacer/Copier1[1]', #189 ) ;
#24 = PLANE ( 'NONE',  #198 ) ;
#25 = CC_DESIGN_DATE_AND_TIME_ASSIGNMENT ( #50, #64, ( #154 ) ) ;
#26 = DIRECTION ( 'NONE',  ( -3.491481338843133355E-15, 1.224646799147353207E-16, -1.000000000000000000 ) ) ;
#27 = PERSON_AND_ORGANIZATION ( #42, #201 ) ;
#28 = UNCERTAINTY_MEASURE_WITH_UNIT (LENGTH_MEASURE( 1.000000000000000082E-05 ), #167, 'distance_accuracy_value', 'NONE');
#29 =( NAMED_UNIT ( * ) SI_UNIT ( $, .STERADIAN. ) SOLID_ANGLE_UNIT ( ) );
#30 = AXIS2_PLACEMENT_3D ( 'NONE', #187, #88, #146 ) ;
#31 = DIRECTION ( 'NONE',  ( 0.0000000000000000000, 1.000000000000000000, 0.0000000000000000000 ) ) ;
#32 = APPROVAL_ROLE ( '' ) ;
#33 = CC_DESIGN_PERSON_AND_ORGANIZATION_ASSIGNMENT ( #77, #60, ( #93 ) ) ;
#34 = PERSON_AND_ORGANIZATION ( #42, #201 ) ;
#35 = SHAPE_DEFINITION_REPRESENTATION ( #54, #36 ) ;
#36 = ADVANCED_BREP_SHAPE_REPRESENTATION ( '372670', ( #23, #18, #8 ), #104 ) ;
#37 = FACE_OUTER_BOUND ( 'NONE', #192, .T. ) ;
#38 = EDGE_CURVE ( 'NONE', #150, #150, #13, .T. ) ;
#39 = CARTESIAN_POINT ( 'NONE',  ( 1.326762908760390423E-13, -4.653657836759941941E-15, 38.00000000000000000 ) ) ;
#40 = AXIS2_PLACEMENT_3D ( 'NONE', #109, #11, #136 ) ;
#41 = FACE_OUTER_BOUND ( 'NONE', #185, .T. ) ;
#42 = PERSON ( 'UNSPECIFIED', 'UNSPECIFIED', 'UNSPECIFIED', ('UNSPECIFIED'), ('UNSPECIFIED'), ('UNSPECIFIED') ) ;
#43 = DIRECTION ( 'NONE',  ( 0.0000000000000000000, 1.000000000000000000, 0.0000000000000000000 ) ) ;
#44 = EDGE_CURVE ( 'NONE', #139, #139, #51, .T. ) ;
#45 = CARTESIAN_POINT ( 'NONE',  ( 0.0000000000000000000, 0.0000000000000000000, 0.0000000000000000000 ) ) ;
#46 = CC_DESIGN_APPROVAL ( #80, ( #10 ) ) ;
#47 = DATE_AND_TIME ( #186, #102 ) ;
#48 = ADVANCED_FACE ( 'NONE', ( #14, #193 ), #131, .T. ) ;
#49 = PERSON_AND_ORGANIZATION ( #42, #201 ) ;
#50 = DATE_AND_TIME ( #17, #116 ) ;
#51 = CIRCLE ( 'NONE', #134, 2.999999999999995559 ) ;
#52 = APPROVAL_STATUS ( 'not_yet_approved' ) ;
#53 = ORIENTED_EDGE ( 'NONE', *, *, #194, .F. ) ;
#54 = PRODUCT_DEFINITION_SHAPE ( 'NONE', 'NONE',  #154 ) ;
#55 = ORIENTED_EDGE ( 'NONE', *, *, #74, .T. ) ;
#56 = DIRECTION ( 'NONE',  ( -3.491481338843133355E-15, 1.224646799147353207E-16, -1.000000000000000000 ) ) ;
#57 = FACE_OUTER_BOUND ( 'NONE', #98, .T. ) ;
#58 = CIRCLE ( 'NONE', #159, 2.400000000000001688 ) ;
#59 = DIRECTION ( 'NONE',  ( -3.491481338843133355E-15, 1.224646799147353207E-16, -1.000000000000000000 ) ) ;
#60 = PERSON_AND_ORGANIZATION_ROLE ( 'design_supplier' ) ;
#61 = PERSON_AND_ORGANIZATION ( #42, #201 ) ;
#62 = AXIS2_PLACEMENT_3D ( 'NONE', #73, #59, #99 ) ;
#63 = EDGE_CURVE ( 'NONE', #106, #106, #67, .T. ) ;
#64 = DATE_TIME_ROLE ( 'creation_date' ) ;
#65 = DIRECTION ( 'NONE',  ( 4.275831445896958607E-31, 1.000000000000000000, 1.224646799147353207E-16 ) ) ;
#66 = ORIENTED_EDGE ( 'NONE', *, *, #44, .F. ) ;
#67 = CIRCLE ( 'NONE', #108, 3.000000000000000888 ) ;
#68 = CARTESIAN_POINT ( 'NONE',  ( 2.772236183041447758E-13, -9.723695585229984332E-15, 79.39999999999999147 ) ) ;
#69 = DIRECTION ( 'NONE',  ( -4.275831445896958607E-31, -1.000000000000000000, -1.224646799147353207E-16 ) ) ;
#70 = DIRECTION ( 'NONE',  ( -4.275831445896958607E-31, -1.000000000000000000, -1.224646799147353207E-16 ) ) ;
#71 = EDGE_LOOP ( 'NONE', ( #66 ) ) ;
#72 = ADVANCED_FACE ( 'NONE', ( #174, #41 ), #148, .T. ) ;
#73 = CARTESIAN_POINT ( 'NONE',  ( -1.710332656378656636E-30, 5.999039404304306745E-32, -4.898587420047210426E-16 ) ) ;
#74 = EDGE_CURVE ( 'NONE', #181, #181, #58, .T. ) ;
#75 = DIRECTION ( 'NONE',  ( 1.000000000000000000, 0.0000000000000000000, 0.0000000000000000000 ) ) ;
#76 = AXIS2_PLACEMENT_3D ( 'NONE', #107, #91, #70 ) ;
#77 = PERSON_AND_ORGANIZATION ( #42, #201 ) ;
#78 = DATE_AND_TIME ( #3, #142 ) ;
#79 = APPLICATION_PROTOCOL_DEFINITION ( 'international standard', 'config_control_design', 1994, #115 ) ;
#80 = APPROVAL ( #52, 'UNSPECIFIED' ) ;
#81 = CALENDAR_DATE ( 2021, 8, 12 ) ;
#82 = ADVANCED_FACE ( 'NONE', ( #37 ), #101, .F. ) ;
#83 = PRODUCT ( '372670', '372670', '', ( #166 ) ) ;
#84 = DIRECTION ( 'NONE',  ( -3.491481338843133355E-15, 1.224646799147353207E-16, -1.000000000000000000 ) ) ;
#85 = AXIS2_PLACEMENT_3D ( 'NONE', #103, #7, #65 ) ;
#86 = ORIENTED_EDGE ( 'NONE', *, *, #63, .F. ) ;
#87 = ADVANCED_FACE ( 'NONE', ( #133, #176 ), #90, .T. ) ;
#88 = DIRECTION ( 'NONE',  ( -3.491481338843133355E-15, 1.224646799147353207E-16, -1.000000000000000000 ) ) ;
#89 = DIRECTION ( 'NONE',  ( 0.0000000000000000000, 1.000000000000000000, 0.0000000000000000000 ) ) ;
#90 = CONICAL_SURFACE ( 'NONE', #138, 2.400000000000001688, 0.7853981633974450594 ) ;
#91 = DIRECTION ( 'NONE',  ( 3.491481338843133355E-15, -1.224646799147353207E-16, 1.000000000000000000 ) ) ;
#92 = PLANE ( 'NONE',  #40 ) ;
#93 = PRODUCT_DEFINITION_FORMATION_WITH_SPECIFIED_SOURCE ( 'ANY', '', #83, .NOT_KNOWN. ) ;
#94 = COORDINATED_UNIVERSAL_TIME_OFFSET ( 1, 0, .AHEAD. ) ;
#95 = APPROVAL_STATUS ( 'not_yet_approved' ) ;
#96 = APPROVAL_DATE_TIME ( #188, #140 ) ;
#97 = APPROVAL_PERSON_ORGANIZATION ( #141, #12, #128 ) ;
#98 = EDGE_LOOP ( 'NONE', ( #100 ) ) ;
#99 = DIRECTION ( 'NONE',  ( 4.275831445896958607E-31, 1.000000000000000000, 1.224646799147353207E-16 ) ) ;
#100 = ORIENTED_EDGE ( 'NONE', *, *, #38, .T. ) ;
#101 = PLANE ( 'NONE',  #85 ) ;
#102 = LOCAL_TIME ( 10, 33, 35.00000000000000000, #129 ) ;
#103 = CARTESIAN_POINT ( 'NONE',  ( 2.793185071074506684E-13, 1.799711739194215445E-32, 80.00000000000000000 ) ) ;
#104 =( GEOMETRIC_REPRESENTATION_CONTEXT ( 3 ) GLOBAL_UNCERTAINTY_ASSIGNED_CONTEXT ( ( #28 ) ) GLOBAL_UNIT_ASSIGNED_CONTEXT ( ( #167, #180, #29 ) ) REPRESENTATION_CONTEXT ( 'NONE', 'WORKASPACE' ) );
#105 = CC_DESIGN_PERSON_AND_ORGANIZATION_ASSIGNMENT ( #2, #130, ( #93 ) ) ;
#106 = VERTEX_POINT ( 'NONE', #202 ) ;
#107 = CARTESIAN_POINT ( 'NONE',  ( -8.551663281893283178E-31, 2.999519702152153373E-32, -2.449293710023605213E-16 ) ) ;
#108 = AXIS2_PLACEMENT_3D ( 'NONE', #68, #199, #178 ) ;
#109 = CARTESIAN_POINT ( 'NONE',  ( 1.326762908760390423E-13, 2.249639673992776285E-32, 38.00000000000000000 ) ) ;
#110 = DATE_TIME_ROLE ( 'classification_date' ) ;
#111 = DATE_AND_TIME ( #1, #19 ) ;
#112 = CIRCLE ( 'NONE', #152, 2.999999999999995559 ) ;
#113 = APPROVAL_STATUS ( 'not_yet_approved' ) ;
#114 = APPROVAL_DATE_TIME ( #111, #12 ) ;
#115 = APPLICATION_CONTEXT ( 'configuration controlled 3d designs of mechanical parts and assemblies' ) ;
#116 = LOCAL_TIME ( 10, 33, 35.00000000000000000, #143 ) ;
#117 = DIRECTION ( 'NONE',  ( 4.275831445896958607E-31, 1.000000000000000000, 1.224646799147352961E-16 ) ) ;
#118 = ORIENTED_EDGE ( 'NONE', *, *, #74, .F. ) ;
#119 = ORIENTED_EDGE ( 'NONE', *, *, #194, .T. ) ;
#120 = DIRECTION ( 'NONE',  ( 0.0000000000000000000, 1.000000000000000000, 0.0000000000000000000 ) ) ;
#121 = ADVANCED_FACE ( 'NONE', ( #163 ), #24, .F. ) ;
#122 = APPROVAL_PERSON_ORGANIZATION ( #34, #80, #157 ) ;
#123 = ORIENTED_EDGE ( 'NONE', *, *, #63, .T. ) ;
#124 = CC_DESIGN_PERSON_AND_ORGANIZATION_ASSIGNMENT ( #61, #155, ( #154 ) ) ;
#125 = VERTEX_POINT ( 'NONE', #179 ) ;
#126 = DIRECTION ( 'NONE',  ( -3.491481338843133355E-15, 1.224646799147353207E-16, -1.000000000000000000 ) ) ;
#127 = CC_DESIGN_APPROVAL ( #140, ( #154 ) ) ;
#128 = APPROVAL_ROLE ( '' ) ;
#129 = COORDINATED_UNIVERSAL_TIME_OFFSET ( 1, 0, .AHEAD. ) ;
#130 = PERSON_AND_ORGANIZATION_ROLE ( 'creator' ) ;
#131 = CYLINDRICAL_SURFACE ( 'NONE', #30, 2.999999999999998224 ) ;
#132 = EDGE_LOOP ( 'NONE', ( #86 ) ) ;
#133 = FACE_OUTER_BOUND ( 'NONE', #132, .T. ) ;
#134 = AXIS2_PLACEMENT_3D ( 'NONE', #39, #126, #43 ) ;
#135 = ADVANCED_FACE ( 'NONE', ( #169 ), #92, .T. ) ;
#136 = DIRECTION ( 'NONE',  ( -4.275831445896958607E-31, -1.000000000000000000, -1.224646799147353207E-16 ) ) ;
#137 = PLANE ( 'NONE',  #76 ) ;
#138 = AXIS2_PLACEMENT_3D ( 'NONE', #164, #26, #89 ) ;
#139 = VERTEX_POINT ( 'NONE', #16 ) ;
#140 = APPROVAL ( #95, 'UNSPECIFIED' ) ;
#141 = PERSON_AND_ORGANIZATION ( #42, #201 ) ;
#142 = LOCAL_TIME ( 10, 33, 35.00000000000000000, #20 ) ;
#143 = COORDINATED_UNIVERSAL_TIME_OFFSET ( 1, 0, .AHEAD. ) ;
#144 = CC_DESIGN_SECURITY_CLASSIFICATION ( #10, ( #93 ) ) ;
#145 = CARTESIAN_POINT ( 'NONE',  ( 0.0000000000000000000, 0.0000000000000000000, 0.0000000000000000000 ) ) ;
#146 = DIRECTION ( 'NONE',  ( 4.275831445896958607E-31, 1.000000000000000000, 1.224646799147353454E-16 ) ) ;
#147 = CARTESIAN_POINT ( 'NONE',  ( 1.326762908760390423E-13, 2.249639673992776285E-32, 38.00000000000000000 ) ) ;
#148 = CYLINDRICAL_SURFACE ( 'NONE', #196, 2.999999999999993339 ) ;
#149 = DESIGN_CONTEXT ( 'detailed design', #115, 'design' ) ;
#150 = VERTEX_POINT ( 'NONE', #15 ) ;
#151 = CC_DESIGN_DATE_AND_TIME_ASSIGNMENT ( #47, #110, ( #10 ) ) ;
#152 = AXIS2_PLACEMENT_3D ( 'NONE', #200, #56, #31 ) ;
#153 = DIRECTION ( 'NONE',  ( 0.0000000000000000000, 0.0000000000000000000, 1.000000000000000000 ) ) ;
#154 = PRODUCT_DEFINITION ( 'UNKNOWN', '', #93, #149 ) ;
#155 = PERSON_AND_ORGANIZATION_ROLE ( 'creator' ) ;
#156 = CLOSED_SHELL ( 'NONE', ( #190, #72, #135 ) ) ;
#157 = APPROVAL_ROLE ( '' ) ;
#158 = EDGE_LOOP ( 'NONE', ( #168 ) ) ;
#159 = AXIS2_PLACEMENT_3D ( 'NONE', #197, #84, #120 ) ;
#160 = EDGE_LOOP ( 'NONE', ( #123 ) ) ;
#161 = CC_DESIGN_PERSON_AND_ORGANIZATION_ASSIGNMENT ( #49, #184, ( #10 ) ) ;
#162 = DIRECTION ( 'NONE',  ( -3.491481338843133355E-15, 1.224646799147353207E-16, -1.000000000000000000 ) ) ;
#163 = FACE_OUTER_BOUND ( 'NONE', #6, .T. ) ;
#164 = CARTESIAN_POINT ( 'NONE',  ( 2.793185071074506684E-13, -9.797174393178826052E-15, 80.00000000000000000 ) ) ;
#165 = CARTESIAN_POINT ( 'NONE',  ( 2.793185071074506684E-13, 2.399999999999991473, 80.00000000000000000 ) ) ;
#166 = MECHANICAL_CONTEXT ( 'NONE', #182, 'mechanical' ) ;
#167 =( LENGTH_UNIT ( ) NAMED_UNIT ( * ) SI_UNIT ( .MILLI., .METRE. ) );
#168 = ORIENTED_EDGE ( 'NONE', *, *, #38, .F. ) ;
#169 = FACE_OUTER_BOUND ( 'NONE', #195, .T. ) ;
#170 = APPROVAL_DATE_TIME ( #78, #80 ) ;
#171 = PRODUCT_RELATED_PRODUCT_CATEGORY ( 'detail', '', ( #83 ) ) ;
#172 = LOCAL_TIME ( 10, 33, 35.00000000000000000, #94 ) ;
#173 = ORIENTED_EDGE ( 'NONE', *, *, #44, .T. ) ;
#174 = FACE_OUTER_BOUND ( 'NONE', #158, .T. ) ;
#175 = EDGE_LOOP ( 'NONE', ( #55 ) ) ;
#176 = FACE_BOUND ( 'NONE', #175, .T. ) ;
#177 = CC_DESIGN_PERSON_AND_ORGANIZATION_ASSIGNMENT ( #27, #21, ( #83 ) ) ;
#178 = DIRECTION ( 'NONE',  ( 0.0000000000000000000, 1.000000000000000000, 0.0000000000000000000 ) ) ;
#179 = CARTESIAN_POINT ( 'NONE',  ( 1.326762908760390423E-13, 2.999999999999991118, 38.00000000000000000 ) ) ;
#180 =( NAMED_UNIT ( * ) PLANE_ANGLE_UNIT ( ) SI_UNIT ( $, .RADIAN. ) );
#181 = VERTEX_POINT ( 'NONE', #165 ) ;
#182 = APPLICATION_CONTEXT ( 'configuration controlled 3d designs of mechanical parts and assemblies' ) ;
#183 = APPROVAL_PERSON_ORGANIZATION ( #22, #140, #32 ) ;
#184 = PERSON_AND_ORGANIZATION_ROLE ( 'classification_officer' ) ;
#185 = EDGE_LOOP ( 'NONE', ( #119 ) ) ;
#186 = CALENDAR_DATE ( 2021, 8, 12 ) ;
#187 = CARTESIAN_POINT ( 'NONE',  ( 0.0000000000000000000, 0.0000000000000000000, 0.0000000000000000000 ) ) ;
#188 = DATE_AND_TIME ( #81, #172 ) ;
#189 = CLOSED_SHELL ( 'NONE', ( #121, #48, #87, #82 ) ) ;
#190 = ADVANCED_FACE ( 'NONE', ( #57 ), #137, .F. ) ;
#191 = SECURITY_CLASSIFICATION_LEVEL ( 'unclassified' ) ;
#192 = EDGE_LOOP ( 'NONE', ( #118 ) ) ;
#193 = FACE_OUTER_BOUND ( 'NONE', #160, .T. ) ;
#194 = EDGE_CURVE ( 'NONE', #125, #125, #112, .T. ) ;
#195 = EDGE_LOOP ( 'NONE', ( #53 ) ) ;
#196 = AXIS2_PLACEMENT_3D ( 'NONE', #145, #162, #117 ) ;
#197 = CARTESIAN_POINT ( 'NONE',  ( 2.793185071074506684E-13, -9.797174393178826052E-15, 80.00000000000000000 ) ) ;
#198 = AXIS2_PLACEMENT_3D ( 'NONE', #147, #9, #69 ) ;
#199 = DIRECTION ( 'NONE',  ( -3.491481338843133355E-15, 1.224646799147353207E-16, -1.000000000000000000 ) ) ;
#200 = CARTESIAN_POINT ( 'NONE',  ( 1.326762908760390423E-13, -4.653657836759941941E-15, 38.00000000000000000 ) ) ;
#201 = ORGANIZATION ( 'UNSPECIFIED', 'UNSPECIFIED', '' ) ;
#202 = CARTESIAN_POINT ( 'NONE',  ( 2.772236183041447758E-13, 2.999999999999991562, 79.39999999999999147 ) ) ;
#203 = APPLICATION_PROTOCOL_DEFINITION ( 'international standard', 'config_control_design', 1994, #182 ) ;
ENDSEC;
END-ISO-10303-21;
