ISO-10303-21;
HEADER;
FILE_DESCRIPTION (( 'STEP AP203' ),
    '1' );
FILE_NAME ('372669.step',
    '2021-12-08T09:33:35',
    ( '' ),
    ( '' ),
    'SwSTEP 2.0',
    'SolidWorks 2019',
    '' );
FILE_SCHEMA (( 'CONFIG_CONTROL_DESIGN' ));
ENDSEC;

DATA;
#1 = VERTEX_POINT ( 'NONE', #178 ) ;
#2 = CLOSED_SHELL ( 'NONE', ( #43, #13, #18, #24 ) ) ;
#3 = ORIENTED_EDGE ( 'NONE', *, *, #193, .F. ) ;
#4 = EDGE_LOOP ( 'NONE', ( #67 ) ) ;
#5 = APPLICATION_PROTOCOL_DEFINITION ( 'international standard', 'config_control_design', 1994, #10 ) ;
#6 = DIRECTION ( 'NONE',  ( 4.275831445896958607E-31, 1.000000000000000000, 1.224646799147353207E-16 ) ) ;
#7 = COORDINATED_UNIVERSAL_TIME_OFFSET ( 1, 0, .AHEAD. ) ;
#8 = CARTESIAN_POINT ( 'NONE',  ( 2.444036937190193601E-13, 2.399999999999992806, 70.00000000000000000 ) ) ;
#9 = CARTESIAN_POINT ( 'NONE',  ( 2.444036937190193601E-13, 1.799711739194217087E-32, 70.00000000000000000 ) ) ;
#10 = APPLICATION_CONTEXT ( 'configuration controlled 3d designs of mechanical parts and assemblies' ) ;
#11 = LOCAL_TIME ( 10, 33, 35.00000000000000000, #180 ) ;
#12 = DIRECTION ( 'NONE',  ( 4.275831445896958607E-31, 1.000000000000000000, 1.224646799147352961E-16 ) ) ;
#13 = ADVANCED_FACE ( 'NONE', ( #64, #31 ), #145, .T. ) ;
#14 = APPROVAL_ROLE ( '' ) ;
#15 = COORDINATED_UNIVERSAL_TIME_OFFSET ( 1, 0, .AHEAD. ) ;
#16 = PERSON ( 'UNSPECIFIED', 'UNSPECIFIED', 'UNSPECIFIED', ('UNSPECIFIED'), ('UNSPECIFIED'), ('UNSPECIFIED') ) ;
#17 = CARTESIAN_POINT ( 'NONE',  ( 2.423088049157134675E-13, -8.499048786082631273E-15, 69.40000000000000568 ) ) ;
#18 = ADVANCED_FACE ( 'NONE', ( #116, #134 ), #194, .T. ) ;
#19 = EDGE_LOOP ( 'NONE', ( #3 ) ) ;
#20 = DIRECTION ( 'NONE',  ( 0.0000000000000000000, 1.000000000000000000, 0.0000000000000000000 ) ) ;
#21 = SECURITY_CLASSIFICATION ( '', '', #26 ) ;
#22 = MECHANICAL_CONTEXT ( 'NONE', #45, 'mechanical' ) ;
#23 = FACE_OUTER_BOUND ( 'NONE', #83, .T. ) ;
#24 = ADVANCED_FACE ( 'NONE', ( #136 ), #123, .F. ) ;
#25 = LOCAL_TIME ( 10, 33, 35.00000000000000000, #7 ) ;
#26 = SECURITY_CLASSIFICATION_LEVEL ( 'unclassified' ) ;
#27 = CALENDAR_DATE ( 2021, 8, 12 ) ;
#28 = DESIGN_CONTEXT ( 'detailed design', #10, 'design' ) ;
#29 = DIRECTION ( 'NONE',  ( 0.0000000000000000000, 1.000000000000000000, 0.0000000000000000000 ) ) ;
#30 = DIRECTION ( 'NONE',  ( -3.491481338843133355E-15, 1.224646799147353207E-16, -1.000000000000000000 ) ) ;
#31 = FACE_OUTER_BOUND ( 'NONE', #117, .T. ) ;
#32 = PRODUCT_DEFINITION_SHAPE ( 'NONE', 'NONE',  #38 ) ;
#33 = CC_DESIGN_PERSON_AND_ORGANIZATION_ASSIGNMENT ( #185, #169, ( #76 ) ) ;
#34 = EDGE_LOOP ( 'NONE', ( #203 ) ) ;
#35 = CIRCLE ( 'NONE', #152, 3.000000000000001332 ) ;
#36 = CC_DESIGN_APPROVAL ( #144, ( #38 ) ) ;
#37 = CALENDAR_DATE ( 2021, 8, 12 ) ;
#38 = PRODUCT_DEFINITION ( 'UNKNOWN', '', #153, #28 ) ;
#39 = DIRECTION ( 'NONE',  ( 3.491481338843133355E-15, -1.224646799147353207E-16, 1.000000000000000000 ) ) ;
#40 = CARTESIAN_POINT ( 'NONE',  ( 1.047444401652940007E-13, 2.999999999999991562, 30.00000000000000000 ) ) ;
#41 = CARTESIAN_POINT ( 'NONE',  ( 2.444036937190193601E-13, -8.572527594031472993E-15, 70.00000000000000000 ) ) ;
#42 = MANIFOLD_SOLID_BREP ( 'Corps-Déplacer/Copier1[2]', #82 ) ;
#43 = ADVANCED_FACE ( 'NONE', ( #57 ), #55, .F. ) ;
#44 = PERSON_AND_ORGANIZATION_ROLE ( 'design_supplier' ) ;
#45 = APPLICATION_CONTEXT ( 'configuration controlled 3d designs of mechanical parts and assemblies' ) ;
#46 = DIRECTION ( 'NONE',  ( 3.491481338843133355E-15, -1.224646799147353207E-16, 1.000000000000000000 ) ) ;
#47 = CC_DESIGN_APPROVAL ( #85, ( #21 ) ) ;
#48 = CC_DESIGN_PERSON_AND_ORGANIZATION_ASSIGNMENT ( #154, #172, ( #21 ) ) ;
#49 = DIRECTION ( 'NONE',  ( -3.491481338843133355E-15, 1.224646799147353207E-16, -1.000000000000000000 ) ) ;
#50 = ORIENTED_EDGE ( 'NONE', *, *, #181, .T. ) ;
#51 = DIRECTION ( 'NONE',  ( 4.275831445896958607E-31, 1.000000000000000000, 1.224646799147353454E-16 ) ) ;
#52 = CIRCLE ( 'NONE', #174, 2.400000000000001688 ) ;
#53 = PERSON_AND_ORGANIZATION_ROLE ( 'creator' ) ;
#54 = LOCAL_TIME ( 10, 33, 35.00000000000000000, #164 ) ;
#55 = PLANE ( 'NONE',  #58 ) ;
#56 = APPLICATION_PROTOCOL_DEFINITION ( 'international standard', 'config_control_design', 1994, #45 ) ;
#57 = FACE_OUTER_BOUND ( 'NONE', #143, .T. ) ;
#58 = AXIS2_PLACEMENT_3D ( 'NONE', #72, #39, #109 ) ;
#59 = FACE_OUTER_BOUND ( 'NONE', #104, .T. ) ;
#60 = PERSON_AND_ORGANIZATION ( #16, #162 ) ;
#61 = DIRECTION ( 'NONE',  ( -4.275831445896958607E-31, -1.000000000000000000, -1.224646799147353207E-16 ) ) ;
#62 = UNCERTAINTY_MEASURE_WITH_UNIT (LENGTH_MEASURE( 1.000000000000000082E-05 ), #73, 'distance_accuracy_value', 'NONE');
#63 = LOCAL_TIME ( 10, 33, 35.00000000000000000, #15 ) ;
#64 = FACE_OUTER_BOUND ( 'NONE', #19, .T. ) ;
#65 = CARTESIAN_POINT ( 'NONE',  ( 0.0000000000000000000, 0.0000000000000000000, 0.0000000000000000000 ) ) ;
#66 = VERTEX_POINT ( 'NONE', #8 ) ;
#67 = ORIENTED_EDGE ( 'NONE', *, *, #160, .T. ) ;
#68 = EDGE_CURVE ( 'NONE', #1, #1, #70, .T. ) ;
#69 = AXIS2_PLACEMENT_3D ( 'NONE', #65, #130, #51 ) ;
#70 = CIRCLE ( 'NONE', #188, 2.999999999999990674 ) ;
#71 = CALENDAR_DATE ( 2021, 8, 12 ) ;
#72 = CARTESIAN_POINT ( 'NONE',  ( 1.047444401652940007E-13, 2.249639673992777380E-32, 30.00000000000000000 ) ) ;
#73 =( LENGTH_UNIT ( ) NAMED_UNIT ( * ) SI_UNIT ( .MILLI., .METRE. ) );
#74 = CC_DESIGN_SECURITY_CLASSIFICATION ( #21, ( #153 ) ) ;
#75 = PERSON_AND_ORGANIZATION_ROLE ( 'creator' ) ;
#76 = PRODUCT ( '372669', '372669', '', ( #22 ) ) ;
#77 = DIRECTION ( 'NONE',  ( -4.275831445896958607E-31, -1.000000000000000000, -1.224646799147353207E-16 ) ) ;
#78 = PERSON_AND_ORGANIZATION ( #16, #162 ) ;
#79 = COORDINATED_UNIVERSAL_TIME_OFFSET ( 1, 0, .AHEAD. ) ;
#80 = ADVANCED_FACE ( 'NONE', ( #23, #59 ), #173, .T. ) ;
#81 = FACE_OUTER_BOUND ( 'NONE', #179, .T. ) ;
#82 = CLOSED_SHELL ( 'NONE', ( #114, #80, #139 ) ) ;
#83 = EDGE_LOOP ( 'NONE', ( #190 ) ) ;
#84 = ORIENTED_EDGE ( 'NONE', *, *, #193, .T. ) ;
#85 = APPROVAL ( #96, 'UNSPECIFIED' ) ;
#86 = ORIENTED_EDGE ( 'NONE', *, *, #197, .T. ) ;
#87 = CIRCLE ( 'NONE', #128, 2.999999999999994671 ) ;
#88 = APPROVAL_PERSON_ORGANIZATION ( #60, #85, #14 ) ;
#89 = PERSON_AND_ORGANIZATION ( #16, #162 ) ;
#90 = CC_DESIGN_PERSON_AND_ORGANIZATION_ASSIGNMENT ( #78, #44, ( #153 ) ) ;
#91 =( NAMED_UNIT ( * ) PLANE_ANGLE_UNIT ( ) SI_UNIT ( $, .RADIAN. ) );
#92 = PRODUCT_RELATED_PRODUCT_CATEGORY ( 'detail', '', ( #76 ) ) ;
#93 = APPROVAL_STATUS ( 'not_yet_approved' ) ;
#94 = ADVANCED_BREP_SHAPE_REPRESENTATION ( '372669', ( #171, #42, #142 ), #201 ) ;
#95 = CC_DESIGN_DATE_AND_TIME_ASSIGNMENT ( #112, #141, ( #21 ) ) ;
#96 = APPROVAL_STATUS ( 'not_yet_approved' ) ;
#97 = DATE_AND_TIME ( #125, #106 ) ;
#98 = DIRECTION ( 'NONE',  ( -3.491481338843133355E-15, 1.224646799147353207E-16, -1.000000000000000000 ) ) ;
#99 = SHAPE_DEFINITION_REPRESENTATION ( #32, #94 ) ;
#100 = CARTESIAN_POINT ( 'NONE',  ( 1.047444401652940007E-13, -3.673940397442059178E-15, 30.00000000000000000 ) ) ;
#101 = AXIS2_PLACEMENT_3D ( 'NONE', #202, #111, #61 ) ;
#102 = DIRECTION ( 'NONE',  ( 0.0000000000000000000, 1.000000000000000000, 0.0000000000000000000 ) ) ;
#103 = CARTESIAN_POINT ( 'NONE',  ( 1.047444401652940007E-13, -3.673940397442059178E-15, 30.00000000000000000 ) ) ;
#104 = EDGE_LOOP ( 'NONE', ( #50 ) ) ;
#105 = AXIS2_PLACEMENT_3D ( 'NONE', #187, #46, #77 ) ;
#106 = LOCAL_TIME ( 10, 33, 35.00000000000000000, #79 ) ;
#107 = DATE_AND_TIME ( #37, #11 ) ;
#108 = CARTESIAN_POINT ( 'NONE',  ( 1.047444401652940007E-13, 2.999999999999991562, 30.00000000000000000 ) ) ;
#109 = DIRECTION ( 'NONE',  ( -4.275831445896958607E-31, -1.000000000000000000, -1.224646799147353207E-16 ) ) ;
#110 = VERTEX_POINT ( 'NONE', #108 ) ;
#111 = DIRECTION ( 'NONE',  ( 3.491481338843133355E-15, -1.224646799147353207E-16, 1.000000000000000000 ) ) ;
#112 = DATE_AND_TIME ( #27, #63 ) ;
#113 = PERSON_AND_ORGANIZATION ( #16, #162 ) ;
#114 = ADVANCED_FACE ( 'NONE', ( #155 ), #156, .F. ) ;
#115 = CC_DESIGN_APPROVAL ( #157, ( #153 ) ) ;
#116 = FACE_OUTER_BOUND ( 'NONE', #34, .T. ) ;
#117 = EDGE_LOOP ( 'NONE', ( #86 ) ) ;
#118 = CIRCLE ( 'NONE', #200, 2.999999999999994671 ) ;
#119 = APPROVAL_DATE_TIME ( #135, #157 ) ;
#120 =( NAMED_UNIT ( * ) SI_UNIT ( $, .STERADIAN. ) SOLID_ANGLE_UNIT ( ) );
#121 = CARTESIAN_POINT ( 'NONE',  ( -1.710321079297537539E-30, 5.998998797370000203E-32, -4.898554261969033220E-16 ) ) ;
#122 = DIRECTION ( 'NONE',  ( 0.0000000000000000000, 0.0000000000000000000, 1.000000000000000000 ) ) ;
#123 = PLANE ( 'NONE',  #161 ) ;
#124 = CC_DESIGN_PERSON_AND_ORGANIZATION_ASSIGNMENT ( #113, #75, ( #153 ) ) ;
#125 = CALENDAR_DATE ( 2021, 8, 12 ) ;
#126 = CC_DESIGN_PERSON_AND_ORGANIZATION_ASSIGNMENT ( #89, #53, ( #38 ) ) ;
#127 = CARTESIAN_POINT ( 'NONE',  ( 2.444036937190193601E-13, -8.572527594031472993E-15, 70.00000000000000000 ) ) ;
#128 = AXIS2_PLACEMENT_3D ( 'NONE', #100, #177, #20 ) ;
#129 = ORIENTED_EDGE ( 'NONE', *, *, #181, .F. ) ;
#130 = DIRECTION ( 'NONE',  ( -3.491481338843133355E-15, 1.224646799147353207E-16, -1.000000000000000000 ) ) ;
#131 = ORIENTED_EDGE ( 'NONE', *, *, #160, .F. ) ;
#132 = CALENDAR_DATE ( 2021, 8, 12 ) ;
#133 = PERSON_AND_ORGANIZATION ( #16, #162 ) ;
#134 = FACE_BOUND ( 'NONE', #4, .T. ) ;
#135 = DATE_AND_TIME ( #71, #25 ) ;
#136 = FACE_OUTER_BOUND ( 'NONE', #192, .T. ) ;
#137 = PLANE ( 'NONE',  #101 ) ;
#138 = AXIS2_PLACEMENT_3D ( 'NONE', #140, #98, #12 ) ;
#139 = ADVANCED_FACE ( 'NONE', ( #81 ), #137, .T. ) ;
#140 = CARTESIAN_POINT ( 'NONE',  ( 0.0000000000000000000, 0.0000000000000000000, 0.0000000000000000000 ) ) ;
#141 = DATE_TIME_ROLE ( 'classification_date' ) ;
#142 = AXIS2_PLACEMENT_3D ( 'NONE', #150, #122, #183 ) ;
#143 = EDGE_LOOP ( 'NONE', ( #84 ) ) ;
#144 = APPROVAL ( #93, 'UNSPECIFIED' ) ;
#145 = CYLINDRICAL_SURFACE ( 'NONE', #69, 2.999999999999998224 ) ;
#146 = EDGE_LOOP ( 'NONE', ( #159 ) ) ;
#147 = DATE_TIME_ROLE ( 'creation_date' ) ;
#148 = DIRECTION ( 'NONE',  ( -3.491481338843133355E-15, 1.224646799147353207E-16, -1.000000000000000000 ) ) ;
#149 = PERSON_AND_ORGANIZATION ( #16, #162 ) ;
#150 = CARTESIAN_POINT ( 'NONE',  ( 0.0000000000000000000, 0.0000000000000000000, 0.0000000000000000000 ) ) ;
#151 = APPROVAL_ROLE ( '' ) ;
#152 = AXIS2_PLACEMENT_3D ( 'NONE', #17, #49, #102 ) ;
#153 = PRODUCT_DEFINITION_FORMATION_WITH_SPECIFIED_SOURCE ( 'ANY', '', #76, .NOT_KNOWN. ) ;
#154 = PERSON_AND_ORGANIZATION ( #16, #162 ) ;
#155 = FACE_OUTER_BOUND ( 'NONE', #146, .T. ) ;
#156 = PLANE ( 'NONE',  #105 ) ;
#157 = APPROVAL ( #182, 'UNSPECIFIED' ) ;
#158 = DIRECTION ( 'NONE',  ( 0.0000000000000000000, 1.000000000000000000, 0.0000000000000000000 ) ) ;
#159 = ORIENTED_EDGE ( 'NONE', *, *, #68, .T. ) ;
#160 = EDGE_CURVE ( 'NONE', #66, #66, #52, .T. ) ;
#161 = AXIS2_PLACEMENT_3D ( 'NONE', #9, #148, #6 ) ;
#162 = ORGANIZATION ( 'UNSPECIFIED', 'UNSPECIFIED', '' ) ;
#163 = APPROVAL_ROLE ( '' ) ;
#164 = COORDINATED_UNIVERSAL_TIME_OFFSET ( 1, 0, .AHEAD. ) ;
#165 = AXIS2_PLACEMENT_3D ( 'NONE', #41, #198, #186 ) ;
#166 = VERTEX_POINT ( 'NONE', #40 ) ;
#167 = DIRECTION ( 'NONE',  ( 4.275831445896958607E-31, 1.000000000000000000, 1.224646799147353207E-16 ) ) ;
#168 = CC_DESIGN_DATE_AND_TIME_ASSIGNMENT ( #107, #147, ( #38 ) ) ;
#169 = PERSON_AND_ORGANIZATION_ROLE ( 'design_owner' ) ;
#170 = APPROVAL_PERSON_ORGANIZATION ( #149, #144, #151 ) ;
#171 = MANIFOLD_SOLID_BREP ( 'Corps-Déplacer/Copier1[1]', #2 ) ;
#172 = PERSON_AND_ORGANIZATION_ROLE ( 'classification_officer' ) ;
#173 = CYLINDRICAL_SURFACE ( 'NONE', #138, 2.999999999999992895 ) ;
#174 = AXIS2_PLACEMENT_3D ( 'NONE', #127, #176, #29 ) ;
#175 = APPROVAL_PERSON_ORGANIZATION ( #133, #157, #163 ) ;
#176 = DIRECTION ( 'NONE',  ( -3.491481338843133355E-15, 1.224646799147353207E-16, -1.000000000000000000 ) ) ;
#177 = DIRECTION ( 'NONE',  ( -3.491481338843133355E-15, 1.224646799147353207E-16, -1.000000000000000000 ) ) ;
#178 = CARTESIAN_POINT ( 'NONE',  ( -4.275716455284538985E-31, 2.999999999999990674, -1.224613864526984692E-16 ) ) ;
#179 = EDGE_LOOP ( 'NONE', ( #129 ) ) ;
#180 = COORDINATED_UNIVERSAL_TIME_OFFSET ( 1, 0, .AHEAD. ) ;
#181 = EDGE_CURVE ( 'NONE', #110, #110, #87, .T. ) ;
#182 = APPROVAL_STATUS ( 'not_yet_approved' ) ;
#183 = DIRECTION ( 'NONE',  ( 1.000000000000000000, 0.0000000000000000000, 0.0000000000000000000 ) ) ;
#184 = DIRECTION ( 'NONE',  ( -3.491481338843133355E-15, 1.224646799147353207E-16, -1.000000000000000000 ) ) ;
#185 = PERSON_AND_ORGANIZATION ( #16, #162 ) ;
#186 = DIRECTION ( 'NONE',  ( 0.0000000000000000000, 1.000000000000000000, 0.0000000000000000000 ) ) ;
#187 = CARTESIAN_POINT ( 'NONE',  ( -8.551605396487687697E-31, 2.999499398685000102E-32, -2.449277130984516610E-16 ) ) ;
#188 = AXIS2_PLACEMENT_3D ( 'NONE', #121, #184, #167 ) ;
#189 = APPROVAL_DATE_TIME ( #97, #85 ) ;
#190 = ORIENTED_EDGE ( 'NONE', *, *, #68, .F. ) ;
#191 = APPROVAL_DATE_TIME ( #196, #144 ) ;
#192 = EDGE_LOOP ( 'NONE', ( #131 ) ) ;
#193 = EDGE_CURVE ( 'NONE', #166, #166, #118, .T. ) ;
#194 = CONICAL_SURFACE ( 'NONE', #165, 2.400000000000001688, 0.7853981633974453924 ) ;
#195 = VERTEX_POINT ( 'NONE', #199 ) ;
#196 = DATE_AND_TIME ( #132, #54 ) ;
#197 = EDGE_CURVE ( 'NONE', #195, #195, #35, .T. ) ;
#198 = DIRECTION ( 'NONE',  ( -3.491481338843133355E-15, 1.224646799147353207E-16, -1.000000000000000000 ) ) ;
#199 = CARTESIAN_POINT ( 'NONE',  ( 2.423088049157134675E-13, 2.999999999999992895, 69.40000000000000568 ) ) ;
#200 = AXIS2_PLACEMENT_3D ( 'NONE', #103, #30, #158 ) ;
#201 =( GEOMETRIC_REPRESENTATION_CONTEXT ( 3 ) GLOBAL_UNCERTAINTY_ASSIGNED_CONTEXT ( ( #62 ) ) GLOBAL_UNIT_ASSIGNED_CONTEXT ( ( #73, #91, #120 ) ) REPRESENTATION_CONTEXT ( 'NONE', 'WORKASPACE' ) );
#202 = CARTESIAN_POINT ( 'NONE',  ( 1.047444401652940007E-13, 2.249639673992777380E-32, 30.00000000000000000 ) ) ;
#203 = ORIENTED_EDGE ( 'NONE', *, *, #197, .F. ) ;
ENDSEC;
END-ISO-10303-21;
