ISO-10303-21;
HEADER;
FILE_DESCRIPTION (( 'STEP AP203' ),
    '1' );
FILE_NAME ('372668.step',
    '2021-12-08T09:33:34',
    ( '' ),
    ( '' ),
    'SwSTEP 2.0',
    'SolidWorks 2019',
    '' );
FILE_SCHEMA (( 'CONFIG_CONTROL_DESIGN' ));
ENDSEC;

DATA;
#1 = ORIENTED_EDGE ( 'NONE', *, *, #181, .F. ) ;
#2 = COORDINATED_UNIVERSAL_TIME_OFFSET ( 1, 0, .AHEAD. ) ;
#3 = EDGE_LOOP ( 'NONE', ( #202 ) ) ;
#4 = CYLINDRICAL_SURFACE ( 'NONE', #129, 2.999999999999997780 ) ;
#5 = DIRECTION ( 'NONE',  ( 0.0000000000000000000, 1.000000000000000000, 0.0000000000000000000 ) ) ;
#6 = FACE_OUTER_BOUND ( 'NONE', #49, .T. ) ;
#7 = DIRECTION ( 'NONE',  ( 4.275831445896958607E-31, 1.000000000000000000, 1.224646799147353454E-16 ) ) ;
#8 = CC_DESIGN_APPROVAL ( #13, ( #194 ) ) ;
#9 = DATE_AND_TIME ( #25, #152 ) ;
#10 = VERTEX_POINT ( 'NONE', #182 ) ;
#11 = AXIS2_PLACEMENT_3D ( 'NONE', #14, #106, #48 ) ;
#12 = CARTESIAN_POINT ( 'NONE',  ( 2.423088049157134675E-13, 2.999999999999992895, 69.40000000000000568 ) ) ;
#13 = APPROVAL ( #142, 'UNSPECIFIED' ) ;
#14 = CARTESIAN_POINT ( 'NONE',  ( -8.551605396487687697E-31, 2.999499398685000102E-32, -2.449277130984516610E-16 ) ) ;
#15 = DATE_TIME_ROLE ( 'creation_date' ) ;
#16 = ADVANCED_FACE ( 'NONE', ( #54 ), #159, .F. ) ;
#17 = DATE_TIME_ROLE ( 'classification_date' ) ;
#18 = DATE_AND_TIME ( #187, #30 ) ;
#19 = DIRECTION ( 'NONE',  ( -3.491481338843133355E-15, 1.224646799147353207E-16, -1.000000000000000000 ) ) ;
#20 = EDGE_LOOP ( 'NONE', ( #88 ) ) ;
#21 = DIRECTION ( 'NONE',  ( 0.0000000000000000000, 1.000000000000000000, 0.0000000000000000000 ) ) ;
#22 = DIRECTION ( 'NONE',  ( -3.491481338843133355E-15, 1.224646799147353207E-16, -1.000000000000000000 ) ) ;
#23 = CC_DESIGN_PERSON_AND_ORGANIZATION_ASSIGNMENT ( #93, #127, ( #194 ) ) ;
#24 = APPROVAL_PERSON_ORGANIZATION ( #162, #87, #47 ) ;
#25 = CALENDAR_DATE ( 2021, 8, 12 ) ;
#26 = PERSON_AND_ORGANIZATION ( #112, #94 ) ;
#27 = CARTESIAN_POINT ( 'NONE',  ( -4.275716455284538985E-31, 2.999999999999990674, -1.224613864526984692E-16 ) ) ;
#28 = CONICAL_SURFACE ( 'NONE', #100, 2.400000000000001688, 0.7853981633974453924 ) ;
#29 = AXIS2_PLACEMENT_3D ( 'NONE', #110, #173, #86 ) ;
#30 = LOCAL_TIME ( 10, 33, 34.00000000000000000, #2 ) ;
#31 = PERSON_AND_ORGANIZATION ( #112, #94 ) ;
#32 = COORDINATED_UNIVERSAL_TIME_OFFSET ( 1, 0, .AHEAD. ) ;
#33 = ADVANCED_FACE ( 'NONE', ( #6, #178 ), #28, .T. ) ;
#34 = CALENDAR_DATE ( 2021, 8, 12 ) ;
#35 = CIRCLE ( 'NONE', #155, 2.999999999999994227 ) ;
#36 = ORIENTED_EDGE ( 'NONE', *, *, #104, .F. ) ;
#37 = DIRECTION ( 'NONE',  ( 0.0000000000000000000, 1.000000000000000000, 0.0000000000000000000 ) ) ;
#38 = EDGE_CURVE ( 'NONE', #10, #10, #35, .T. ) ;
#39 = MANIFOLD_SOLID_BREP ( 'Corps-Déplacer/Copier1[1]', #65 ) ;
#40 = CARTESIAN_POINT ( 'NONE',  ( 8.379555213223520053E-14, -2.939152317953647894E-15, 24.00000000000000000 ) ) ;
#41 = DIRECTION ( 'NONE',  ( -3.491481338843133355E-15, 1.224646799147353207E-16, -1.000000000000000000 ) ) ;
#42 = UNCERTAINTY_MEASURE_WITH_UNIT (LENGTH_MEASURE( 1.000000000000000082E-05 ), #161, 'distance_accuracy_value', 'NONE');
#43 = EDGE_CURVE ( 'NONE', #165, #165, #143, .T. ) ;
#44 = DIRECTION ( 'NONE',  ( -3.491481338843133355E-15, 1.224646799147353207E-16, -1.000000000000000000 ) ) ;
#45 = COORDINATED_UNIVERSAL_TIME_OFFSET ( 1, 0, .AHEAD. ) ;
#46 = AXIS2_PLACEMENT_3D ( 'NONE', #121, #44, #90 ) ;
#47 = APPROVAL_ROLE ( '' ) ;
#48 = DIRECTION ( 'NONE',  ( -4.275831445896958607E-31, -1.000000000000000000, -1.224646799147353207E-16 ) ) ;
#49 = EDGE_LOOP ( 'NONE', ( #1 ) ) ;
#50 = CC_DESIGN_DATE_AND_TIME_ASSIGNMENT ( #172, #15, ( #95 ) ) ;
#51 = APPROVAL_DATE_TIME ( #109, #188 ) ;
#52 = EDGE_LOOP ( 'NONE', ( #169 ) ) ;
#53 = CC_DESIGN_APPROVAL ( #188, ( #139 ) ) ;
#54 = FACE_OUTER_BOUND ( 'NONE', #20, .T. ) ;
#55 = CIRCLE ( 'NONE', #60, 2.999999999999990674 ) ;
#56 = DIRECTION ( 'NONE',  ( 0.0000000000000000000, 1.000000000000000000, 0.0000000000000000000 ) ) ;
#57 = APPLICATION_PROTOCOL_DEFINITION ( 'international standard', 'config_control_design', 1994, #75 ) ;
#58 = CARTESIAN_POINT ( 'NONE',  ( 8.379555213223520053E-14, 2.999999999999991562, 24.00000000000000000 ) ) ;
#59 = VERTEX_POINT ( 'NONE', #27 ) ;
#60 = AXIS2_PLACEMENT_3D ( 'NONE', #193, #191, #156 ) ;
#61 = DIRECTION ( 'NONE',  ( 1.000000000000000000, 0.0000000000000000000, 0.0000000000000000000 ) ) ;
#62 = APPROVAL_ROLE ( '' ) ;
#63 = APPROVAL_PERSON_ORGANIZATION ( #185, #188, #84 ) ;
#64 = EDGE_LOOP ( 'NONE', ( #36 ) ) ;
#65 = CLOSED_SHELL ( 'NONE', ( #16, #136, #33, #70 ) ) ;
#66 = CLOSED_SHELL ( 'NONE', ( #176, #192, #153 ) ) ;
#67 = SECURITY_CLASSIFICATION_LEVEL ( 'unclassified' ) ;
#68 = ORIENTED_EDGE ( 'NONE', *, *, #43, .F. ) ;
#69 = CARTESIAN_POINT ( 'NONE',  ( 0.0000000000000000000, 0.0000000000000000000, 0.0000000000000000000 ) ) ;
#70 = ADVANCED_FACE ( 'NONE', ( #99 ), #74, .F. ) ;
#71 = CC_DESIGN_APPROVAL ( #87, ( #95 ) ) ;
#72 = DIRECTION ( 'NONE',  ( -3.491481338843133355E-15, 1.224646799147353207E-16, -1.000000000000000000 ) ) ;
#73 = EDGE_LOOP ( 'NONE', ( #130 ) ) ;
#74 = PLANE ( 'NONE',  #82 ) ;
#75 = APPLICATION_CONTEXT ( 'configuration controlled 3d designs of mechanical parts and assemblies' ) ;
#76 = CARTESIAN_POINT ( 'NONE',  ( 2.444036937190193601E-13, -8.572527594031472993E-15, 70.00000000000000000 ) ) ;
#77 = DIRECTION ( 'NONE',  ( 0.0000000000000000000, 1.000000000000000000, 0.0000000000000000000 ) ) ;
#78 = MECHANICAL_CONTEXT ( 'NONE', #75, 'mechanical' ) ;
#79 = APPLICATION_PROTOCOL_DEFINITION ( 'international standard', 'config_control_design', 1994, #135 ) ;
#80 = CC_DESIGN_PERSON_AND_ORGANIZATION_ASSIGNMENT ( #31, #124, ( #139 ) ) ;
#81 = COORDINATED_UNIVERSAL_TIME_OFFSET ( 1, 0, .AHEAD. ) ;
#82 = AXIS2_PLACEMENT_3D ( 'NONE', #145, #72, #131 ) ;
#83 = CC_DESIGN_PERSON_AND_ORGANIZATION_ASSIGNMENT ( #137, #148, ( #150 ) ) ;
#84 = APPROVAL_ROLE ( '' ) ;
#85 = AXIS2_PLACEMENT_3D ( 'NONE', #183, #103, #77 ) ;
#86 = DIRECTION ( 'NONE',  ( -4.275831445896958607E-31, -1.000000000000000000, -1.224646799147353207E-16 ) ) ;
#87 = APPROVAL ( #180, 'UNSPECIFIED' ) ;
#88 = ORIENTED_EDGE ( 'NONE', *, *, #38, .T. ) ;
#89 = DIRECTION ( 'NONE',  ( 3.491481338843133355E-15, -1.224646799147353207E-16, 1.000000000000000000 ) ) ;
#90 = DIRECTION ( 'NONE',  ( 4.275831445896958607E-31, 1.000000000000000000, 1.224646799147353207E-16 ) ) ;
#91 = PERSON_AND_ORGANIZATION_ROLE ( 'creator' ) ;
#92 = PRODUCT_DEFINITION_SHAPE ( 'NONE', 'NONE',  #95 ) ;
#93 = PERSON_AND_ORGANIZATION ( #112, #94 ) ;
#94 = ORGANIZATION ( 'UNSPECIFIED', 'UNSPECIFIED', '' ) ;
#95 = PRODUCT_DEFINITION ( 'UNKNOWN', '', #194, #144 ) ;
#96 = ORIENTED_EDGE ( 'NONE', *, *, #122, .F. ) ;
#97 = PERSON_AND_ORGANIZATION ( #112, #94 ) ;
#98 = DIRECTION ( 'NONE',  ( -3.491481338843133355E-15, 1.224646799147353207E-16, -1.000000000000000000 ) ) ;
#99 = FACE_OUTER_BOUND ( 'NONE', #113, .T. ) ;
#100 = AXIS2_PLACEMENT_3D ( 'NONE', #76, #22, #21 ) ;
#101 = CARTESIAN_POINT ( 'NONE',  ( 8.379555213223520053E-14, 2.249639673992777654E-32, 24.00000000000000000 ) ) ;
#102 = VERTEX_POINT ( 'NONE', #58 ) ;
#103 = DIRECTION ( 'NONE',  ( -3.491481338843133355E-15, 1.224646799147353207E-16, -1.000000000000000000 ) ) ;
#104 = EDGE_CURVE ( 'NONE', #59, #59, #55, .T. ) ;
#105 = CC_DESIGN_PERSON_AND_ORGANIZATION_ASSIGNMENT ( #170, #168, ( #194 ) ) ;
#106 = DIRECTION ( 'NONE',  ( 3.491481338843133355E-15, -1.224646799147353207E-16, 1.000000000000000000 ) ) ;
#107 = APPROVAL_PERSON_ORGANIZATION ( #97, #13, #62 ) ;
#108 = COORDINATED_UNIVERSAL_TIME_OFFSET ( 1, 0, .AHEAD. ) ;
#109 = DATE_AND_TIME ( #34, #125 ) ;
#110 = CARTESIAN_POINT ( 'NONE',  ( 8.379555213223520053E-14, 2.249639673992777654E-32, 24.00000000000000000 ) ) ;
#111 = CIRCLE ( 'NONE', #164, 2.999999999999994227 ) ;
#112 = PERSON ( 'UNSPECIFIED', 'UNSPECIFIED', 'UNSPECIFIED', ('UNSPECIFIED'), ('UNSPECIFIED'), ('UNSPECIFIED') ) ;
#113 = EDGE_LOOP ( 'NONE', ( #68 ) ) ;
#114 = DIRECTION ( 'NONE',  ( -3.491481338843133355E-15, 1.224646799147353207E-16, -1.000000000000000000 ) ) ;
#115 = ORIENTED_EDGE ( 'NONE', *, *, #38, .F. ) ;
#116 = CIRCLE ( 'NONE', #85, 3.000000000000001332 ) ;
#117 = FACE_OUTER_BOUND ( 'NONE', #52, .T. ) ;
#118 = PLANE ( 'NONE',  #11 ) ;
#119 = LOCAL_TIME ( 10, 33, 34.00000000000000000, #108 ) ;
#120 = APPROVAL_DATE_TIME ( #9, #87 ) ;
#121 = CARTESIAN_POINT ( 'NONE',  ( 0.0000000000000000000, 0.0000000000000000000, 0.0000000000000000000 ) ) ;
#122 = EDGE_CURVE ( 'NONE', #102, #102, #111, .T. ) ;
#123 = DIRECTION ( 'NONE',  ( 0.0000000000000000000, 0.0000000000000000000, 1.000000000000000000 ) ) ;
#124 = PERSON_AND_ORGANIZATION_ROLE ( 'classification_officer' ) ;
#125 = LOCAL_TIME ( 10, 33, 34.00000000000000000, #32 ) ;
#126 = APPROVAL_DATE_TIME ( #167, #13 ) ;
#127 = PERSON_AND_ORGANIZATION_ROLE ( 'creator' ) ;
#128 = EDGE_LOOP ( 'NONE', ( #96 ) ) ;
#129 = AXIS2_PLACEMENT_3D ( 'NONE', #69, #41, #7 ) ;
#130 = ORIENTED_EDGE ( 'NONE', *, *, #104, .T. ) ;
#131 = DIRECTION ( 'NONE',  ( 4.275831445896958607E-31, 1.000000000000000000, 1.224646799147353207E-16 ) ) ;
#132 = LOCAL_TIME ( 10, 33, 34.00000000000000000, #81 ) ;
#133 = FACE_OUTER_BOUND ( 'NONE', #128, .T. ) ;
#134 = CARTESIAN_POINT ( 'NONE',  ( 0.0000000000000000000, 0.0000000000000000000, 0.0000000000000000000 ) ) ;
#135 = APPLICATION_CONTEXT ( 'configuration controlled 3d designs of mechanical parts and assemblies' ) ;
#136 = ADVANCED_FACE ( 'NONE', ( #146, #117 ), #4, .T. ) ;
#137 = PERSON_AND_ORGANIZATION ( #112, #94 ) ;
#138 = FACE_OUTER_BOUND ( 'NONE', #73, .T. ) ;
#139 = SECURITY_CLASSIFICATION ( '', '', #67 ) ;
#140 = CALENDAR_DATE ( 2021, 8, 12 ) ;
#141 = EDGE_LOOP ( 'NONE', ( #115 ) ) ;
#142 = APPROVAL_STATUS ( 'not_yet_approved' ) ;
#143 = CIRCLE ( 'NONE', #190, 2.400000000000001688 ) ;
#144 = DESIGN_CONTEXT ( 'detailed design', #135, 'design' ) ;
#145 = CARTESIAN_POINT ( 'NONE',  ( 2.444036937190193601E-13, 1.799711739194217087E-32, 70.00000000000000000 ) ) ;
#146 = FACE_OUTER_BOUND ( 'NONE', #141, .T. ) ;
#147 =( NAMED_UNIT ( * ) SI_UNIT ( $, .STERADIAN. ) SOLID_ANGLE_UNIT ( ) );
#148 = PERSON_AND_ORGANIZATION_ROLE ( 'design_owner' ) ;
#149 = FACE_OUTER_BOUND ( 'NONE', #175, .T. ) ;
#150 = PRODUCT ( '372668', '372668', '', ( #78 ) ) ;
#151 = PRODUCT_RELATED_PRODUCT_CATEGORY ( 'detail', '', ( #150 ) ) ;
#152 = LOCAL_TIME ( 10, 33, 34.00000000000000000, #45 ) ;
#153 = ADVANCED_FACE ( 'NONE', ( #133 ), #195, .T. ) ;
#154 = SHAPE_DEFINITION_REPRESENTATION ( #92, #166 ) ;
#155 = AXIS2_PLACEMENT_3D ( 'NONE', #189, #114, #37 ) ;
#156 = DIRECTION ( 'NONE',  ( 4.275831445896958607E-31, 1.000000000000000000, 1.224646799147353207E-16 ) ) ;
#157 = DIRECTION ( 'NONE',  ( -4.275831445896958607E-31, -1.000000000000000000, -1.224646799147353207E-16 ) ) ;
#158 = CC_DESIGN_DATE_AND_TIME_ASSIGNMENT ( #18, #17, ( #139 ) ) ;
#159 = PLANE ( 'NONE',  #184 ) ;
#160 =( GEOMETRIC_REPRESENTATION_CONTEXT ( 3 ) GLOBAL_UNCERTAINTY_ASSIGNED_CONTEXT ( ( #42 ) ) GLOBAL_UNIT_ASSIGNED_CONTEXT ( ( #161, #196, #147 ) ) REPRESENTATION_CONTEXT ( 'NONE', 'WORKASPACE' ) );
#161 =( LENGTH_UNIT ( ) NAMED_UNIT ( * ) SI_UNIT ( .MILLI., .METRE. ) );
#162 = PERSON_AND_ORGANIZATION ( #112, #94 ) ;
#163 = CARTESIAN_POINT ( 'NONE',  ( 2.444036937190193601E-13, 2.399999999999992806, 70.00000000000000000 ) ) ;
#164 = AXIS2_PLACEMENT_3D ( 'NONE', #40, #19, #56 ) ;
#165 = VERTEX_POINT ( 'NONE', #163 ) ;
#166 = ADVANCED_BREP_SHAPE_REPRESENTATION ( '372668', ( #39, #171, #200 ), #160 ) ;
#167 = DATE_AND_TIME ( #201, #132 ) ;
#168 = PERSON_AND_ORGANIZATION_ROLE ( 'design_supplier' ) ;
#169 = ORIENTED_EDGE ( 'NONE', *, *, #181, .T. ) ;
#170 = PERSON_AND_ORGANIZATION ( #112, #94 ) ;
#171 = MANIFOLD_SOLID_BREP ( 'Corps-Déplacer/Copier1[2]', #66 ) ;
#172 = DATE_AND_TIME ( #140, #119 ) ;
#173 = DIRECTION ( 'NONE',  ( 3.491481338843133355E-15, -1.224646799147353207E-16, 1.000000000000000000 ) ) ;
#174 = CC_DESIGN_SECURITY_CLASSIFICATION ( #139, ( #194 ) ) ;
#175 = EDGE_LOOP ( 'NONE', ( #186 ) ) ;
#176 = ADVANCED_FACE ( 'NONE', ( #138 ), #118, .F. ) ;
#177 = CARTESIAN_POINT ( 'NONE',  ( 2.444036937190193601E-13, -8.572527594031472993E-15, 70.00000000000000000 ) ) ;
#178 = FACE_BOUND ( 'NONE', #3, .T. ) ;
#179 = CYLINDRICAL_SURFACE ( 'NONE', #46, 2.999999999999992450 ) ;
#180 = APPROVAL_STATUS ( 'not_yet_approved' ) ;
#181 = EDGE_CURVE ( 'NONE', #198, #198, #116, .T. ) ;
#182 = CARTESIAN_POINT ( 'NONE',  ( 8.379555213223520053E-14, 2.999999999999991562, 24.00000000000000000 ) ) ;
#183 = CARTESIAN_POINT ( 'NONE',  ( 2.423088049157134675E-13, -8.499048786082631273E-15, 69.40000000000000568 ) ) ;
#184 = AXIS2_PLACEMENT_3D ( 'NONE', #101, #89, #157 ) ;
#185 = PERSON_AND_ORGANIZATION ( #112, #94 ) ;
#186 = ORIENTED_EDGE ( 'NONE', *, *, #122, .T. ) ;
#187 = CALENDAR_DATE ( 2021, 8, 12 ) ;
#188 = APPROVAL ( #199, 'UNSPECIFIED' ) ;
#189 = CARTESIAN_POINT ( 'NONE',  ( 8.379555213223520053E-14, -2.939152317953647894E-15, 24.00000000000000000 ) ) ;
#190 = AXIS2_PLACEMENT_3D ( 'NONE', #177, #98, #5 ) ;
#191 = DIRECTION ( 'NONE',  ( -3.491481338843133355E-15, 1.224646799147353207E-16, -1.000000000000000000 ) ) ;
#192 = ADVANCED_FACE ( 'NONE', ( #197, #149 ), #179, .T. ) ;
#193 = CARTESIAN_POINT ( 'NONE',  ( -1.710321079297537539E-30, 5.998998797370000203E-32, -4.898554261969033220E-16 ) ) ;
#194 = PRODUCT_DEFINITION_FORMATION_WITH_SPECIFIED_SOURCE ( 'ANY', '', #150, .NOT_KNOWN. ) ;
#195 = PLANE ( 'NONE',  #29 ) ;
#196 =( NAMED_UNIT ( * ) PLANE_ANGLE_UNIT ( ) SI_UNIT ( $, .RADIAN. ) );
#197 = FACE_OUTER_BOUND ( 'NONE', #64, .T. ) ;
#198 = VERTEX_POINT ( 'NONE', #12 ) ;
#199 = APPROVAL_STATUS ( 'not_yet_approved' ) ;
#200 = AXIS2_PLACEMENT_3D ( 'NONE', #134, #123, #61 ) ;
#201 = CALENDAR_DATE ( 2021, 8, 12 ) ;
#202 = ORIENTED_EDGE ( 'NONE', *, *, #43, .T. ) ;
#203 = CC_DESIGN_PERSON_AND_ORGANIZATION_ASSIGNMENT ( #26, #91, ( #95 ) ) ;
ENDSEC;
END-ISO-10303-21;
