ISO-10303-21;
HEADER;
FILE_DESCRIPTION (( 'STEP AP203' ),
    '1' );
FILE_NAME ('372667.step',
    '2021-12-08T09:33:33',
    ( '' ),
    ( '' ),
    'SwSTEP 2.0',
    'SolidWorks 2019',
    '' );
FILE_SCHEMA (( 'CONFIG_CONTROL_DESIGN' ));
ENDSEC;

DATA;
#1 = DATE_AND_TIME ( #202, #59 ) ;
#2 = AXIS2_PLACEMENT_3D ( 'NONE', #96, #74, #179 ) ;
#3 = EDGE_LOOP ( 'NONE', ( #69 ) ) ;
#4 = DIRECTION ( 'NONE',  ( 4.275831445896958607E-31, 1.000000000000000000, 1.224646799147353207E-16 ) ) ;
#5 = AXIS2_PLACEMENT_3D ( 'NONE', #106, #92, #44 ) ;
#6 = CIRCLE ( 'NONE', #33, 2.999999999999994227 ) ;
#7 = EDGE_LOOP ( 'NONE', ( #123 ) ) ;
#8 = EDGE_CURVE ( 'NONE', #95, #95, #70, .T. ) ;
#9 = DIRECTION ( 'NONE',  ( 4.275831445896958607E-31, 1.000000000000000000, 1.224646799147353454E-16 ) ) ;
#10 = CARTESIAN_POINT ( 'NONE',  ( 2.073939915272820834E-13, 2.999999999999993783, 59.39999999999999147 ) ) ;
#11 = FACE_OUTER_BOUND ( 'NONE', #88, .T. ) ;
#12 = CC_DESIGN_PERSON_AND_ORGANIZATION_ASSIGNMENT ( #47, #160, ( #141 ) ) ;
#13 = ORGANIZATION ( 'UNSPECIFIED', 'UNSPECIFIED', '' ) ;
#14 = VERTEX_POINT ( 'NONE', #10 ) ;
#15 = SHAPE_DEFINITION_REPRESENTATION ( #190, #117 ) ;
#16 = PERSON_AND_ORGANIZATION ( #28, #13 ) ;
#17 = CLOSED_SHELL ( 'NONE', ( #50, #165, #145 ) ) ;
#18 = APPROVAL_STATUS ( 'not_yet_approved' ) ;
#19 = COORDINATED_UNIVERSAL_TIME_OFFSET ( 1, 0, .AHEAD. ) ;
#20 = CARTESIAN_POINT ( 'NONE',  ( 2.094888803305880013E-13, 1.799711739194219277E-32, 60.00000000000000000 ) ) ;
#21 = EDGE_LOOP ( 'NONE', ( #149 ) ) ;
#22 = DIRECTION ( 'NONE',  ( 0.0000000000000000000, 1.000000000000000000, 0.0000000000000000000 ) ) ;
#23 = DIRECTION ( 'NONE',  ( 3.491481338843133355E-15, -1.224646799147353207E-16, 1.000000000000000000 ) ) ;
#24 = CC_DESIGN_APPROVAL ( #137, ( #153 ) ) ;
#25 = DIRECTION ( 'NONE',  ( 3.491481338843133355E-15, -1.224646799147353207E-16, 1.000000000000000000 ) ) ;
#26 = APPLICATION_PROTOCOL_DEFINITION ( 'international standard', 'config_control_design', 1994, #173 ) ;
#27 = PRODUCT_RELATED_PRODUCT_CATEGORY ( 'detail', '', ( #30 ) ) ;
#28 = PERSON ( 'UNSPECIFIED', 'UNSPECIFIED', 'UNSPECIFIED', ('UNSPECIFIED'), ('UNSPECIFIED'), ('UNSPECIFIED') ) ;
#29 = PERSON_AND_ORGANIZATION_ROLE ( 'classification_officer' ) ;
#30 = PRODUCT ( '372667', '372667', '', ( #113 ) ) ;
#31 = DATE_AND_TIME ( #99, #122 ) ;
#32 = PERSON_AND_ORGANIZATION ( #28, #13 ) ;
#33 = AXIS2_PLACEMENT_3D ( 'NONE', #198, #58, #155 ) ;
#34 = FACE_OUTER_BOUND ( 'NONE', #71, .T. ) ;
#35 = AXIS2_PLACEMENT_3D ( 'NONE', #20, #89, #4 ) ;
#36 = CC_DESIGN_DATE_AND_TIME_ASSIGNMENT ( #144, #200, ( #161 ) ) ;
#37 = PLANE ( 'NONE',  #2 ) ;
#38 = ORIENTED_EDGE ( 'NONE', *, *, #72, .T. ) ;
#39 = AXIS2_PLACEMENT_3D ( 'NONE', #199, #57, #9 ) ;
#40 = CARTESIAN_POINT ( 'NONE',  ( 6.982962677686266711E-14, 2.249639673992778475E-32, 20.00000000000000000 ) ) ;
#41 = FACE_OUTER_BOUND ( 'NONE', #21, .T. ) ;
#42 = ADVANCED_FACE ( 'NONE', ( #34 ), #102, .F. ) ;
#43 =( LENGTH_UNIT ( ) NAMED_UNIT ( * ) SI_UNIT ( .MILLI., .METRE. ) );
#44 = DIRECTION ( 'NONE',  ( 4.275831445896958607E-31, 1.000000000000000000, 1.224646799147353207E-16 ) ) ;
#45 = PLANE ( 'NONE',  #159 ) ;
#46 = CIRCLE ( 'NONE', #152, 2.999999999999990674 ) ;
#47 = PERSON_AND_ORGANIZATION ( #28, #13 ) ;
#48 = CARTESIAN_POINT ( 'NONE',  ( 0.0000000000000000000, 0.0000000000000000000, 0.0000000000000000000 ) ) ;
#49 = CALENDAR_DATE ( 2021, 8, 12 ) ;
#50 = ADVANCED_FACE ( 'NONE', ( #120 ), #37, .F. ) ;
#51 = APPROVAL_DATE_TIME ( #1, #137 ) ;
#52 = CALENDAR_DATE ( 2021, 8, 12 ) ;
#53 = ORIENTED_EDGE ( 'NONE', *, *, #8, .T. ) ;
#54 = AXIS2_PLACEMENT_3D ( 'NONE', #166, #23, #178 ) ;
#55 = LOCAL_TIME ( 10, 33, 33.00000000000000000, #140 ) ;
#56 =( NAMED_UNIT ( * ) SI_UNIT ( $, .STERADIAN. ) SOLID_ANGLE_UNIT ( ) );
#57 = DIRECTION ( 'NONE',  ( -3.491481338843133355E-15, 1.224646799147353207E-16, -1.000000000000000000 ) ) ;
#58 = DIRECTION ( 'NONE',  ( -3.491481338843133355E-15, 1.224646799147353207E-16, -1.000000000000000000 ) ) ;
#59 = LOCAL_TIME ( 10, 33, 33.00000000000000000, #19 ) ;
#60 = DIRECTION ( 'NONE',  ( -3.491481338843133355E-15, 1.224646799147353207E-16, -1.000000000000000000 ) ) ;
#61 = VERTEX_POINT ( 'NONE', #154 ) ;
#62 = UNCERTAINTY_MEASURE_WITH_UNIT (LENGTH_MEASURE( 1.000000000000000082E-05 ), #43, 'distance_accuracy_value', 'NONE');
#63 = APPROVAL_ROLE ( '' ) ;
#64 =( GEOMETRIC_REPRESENTATION_CONTEXT ( 3 ) GLOBAL_UNCERTAINTY_ASSIGNED_CONTEXT ( ( #62 ) ) GLOBAL_UNIT_ASSIGNED_CONTEXT ( ( #43, #194, #56 ) ) REPRESENTATION_CONTEXT ( 'NONE', 'WORKASPACE' ) );
#65 = PERSON_AND_ORGANIZATION ( #28, #13 ) ;
#66 = APPROVAL_STATUS ( 'not_yet_approved' ) ;
#67 = CC_DESIGN_PERSON_AND_ORGANIZATION_ASSIGNMENT ( #101, #29, ( #161 ) ) ;
#68 = ORIENTED_EDGE ( 'NONE', *, *, #112, .F. ) ;
#69 = ORIENTED_EDGE ( 'NONE', *, *, #201, .F. ) ;
#70 = CIRCLE ( 'NONE', #176, 2.400000000000001688 ) ;
#71 = EDGE_LOOP ( 'NONE', ( #191 ) ) ;
#72 = EDGE_CURVE ( 'NONE', #61, #61, #46, .T. ) ;
#73 = MANIFOLD_SOLID_BREP ( 'Corps-Déplacer/Copier1[2]', #17 ) ;
#74 = DIRECTION ( 'NONE',  ( 3.491481338843133355E-15, -1.224646799147353207E-16, 1.000000000000000000 ) ) ;
#75 = APPROVAL ( #18, 'UNSPECIFIED' ) ;
#76 = CARTESIAN_POINT ( 'NONE',  ( 2.094888803305880013E-13, -7.347880794884118356E-15, 60.00000000000000000 ) ) ;
#77 = DIRECTION ( 'NONE',  ( -3.491481338843133355E-15, 1.224646799147353207E-16, -1.000000000000000000 ) ) ;
#78 = FACE_OUTER_BOUND ( 'NONE', #103, .T. ) ;
#79 = FACE_OUTER_BOUND ( 'NONE', #91, .T. ) ;
#80 = APPROVAL_ROLE ( '' ) ;
#81 = CC_DESIGN_APPROVAL ( #75, ( #141 ) ) ;
#82 = CLOSED_SHELL ( 'NONE', ( #187, #130, #84, #42 ) ) ;
#83 = APPROVAL_STATUS ( 'not_yet_approved' ) ;
#84 = ADVANCED_FACE ( 'NONE', ( #79, #111 ), #104, .T. ) ;
#85 = DIRECTION ( 'NONE',  ( 0.0000000000000000000, 0.0000000000000000000, 1.000000000000000000 ) ) ;
#86 = DATE_AND_TIME ( #52, #197 ) ;
#87 = CC_DESIGN_PERSON_AND_ORGANIZATION_ASSIGNMENT ( #32, #129, ( #30 ) ) ;
#88 = EDGE_LOOP ( 'NONE', ( #188 ) ) ;
#89 = DIRECTION ( 'NONE',  ( -3.491481338843133355E-15, 1.224646799147353207E-16, -1.000000000000000000 ) ) ;
#90 = CC_DESIGN_APPROVAL ( #132, ( #161 ) ) ;
#91 = EDGE_LOOP ( 'NONE', ( #164 ) ) ;
#92 = DIRECTION ( 'NONE',  ( -3.491481338843133355E-15, 1.224646799147353207E-16, -1.000000000000000000 ) ) ;
#93 = AXIS2_PLACEMENT_3D ( 'NONE', #136, #151, #109 ) ;
#94 = VERTEX_POINT ( 'NONE', #150 ) ;
#95 = VERTEX_POINT ( 'NONE', #125 ) ;
#96 = CARTESIAN_POINT ( 'NONE',  ( -8.551645878280046007E-31, 2.999513597786362929E-32, -2.449288725430663564E-16 ) ) ;
#97 = LOCAL_TIME ( 10, 33, 33.00000000000000000, #142 ) ;
#98 = CC_DESIGN_PERSON_AND_ORGANIZATION_ASSIGNMENT ( #163, #128, ( #153 ) ) ;
#99 = CALENDAR_DATE ( 2021, 8, 12 ) ;
#100 = PERSON_AND_ORGANIZATION_ROLE ( 'design_supplier' ) ;
#101 = PERSON_AND_ORGANIZATION ( #28, #13 ) ;
#102 = PLANE ( 'NONE',  #35 ) ;
#103 = EDGE_LOOP ( 'NONE', ( #121 ) ) ;
#104 = CONICAL_SURFACE ( 'NONE', #134, 2.400000000000001688, 0.7853981633974453924 ) ;
#105 = EDGE_LOOP ( 'NONE', ( #53 ) ) ;
#106 = CARTESIAN_POINT ( 'NONE',  ( 0.0000000000000000000, 0.0000000000000000000, 0.0000000000000000000 ) ) ;
#107 = DIRECTION ( 'NONE',  ( 0.0000000000000000000, 1.000000000000000000, 0.0000000000000000000 ) ) ;
#108 = PLANE ( 'NONE',  #54 ) ;
#109 = DIRECTION ( 'NONE',  ( 0.0000000000000000000, 1.000000000000000000, 0.0000000000000000000 ) ) ;
#110 = CIRCLE ( 'NONE', #93, 3.000000000000001332 ) ;
#111 = FACE_BOUND ( 'NONE', #105, .T. ) ;
#112 = EDGE_CURVE ( 'NONE', #169, #169, #182, .T. ) ;
#113 = MECHANICAL_CONTEXT ( 'NONE', #189, 'mechanical' ) ;
#114 = APPROVAL_DATE_TIME ( #86, #75 ) ;
#115 = CC_DESIGN_SECURITY_CLASSIFICATION ( #161, ( #141 ) ) ;
#116 = DATE_TIME_ROLE ( 'creation_date' ) ;
#117 = ADVANCED_BREP_SHAPE_REPRESENTATION ( '372667', ( #203, #73, #119 ), #64 ) ;
#118 = DIRECTION ( 'NONE',  ( -3.491481338843133355E-15, 1.224646799147353207E-16, -1.000000000000000000 ) ) ;
#119 = AXIS2_PLACEMENT_3D ( 'NONE', #48, #85, #186 ) ;
#120 = FACE_OUTER_BOUND ( 'NONE', #148, .T. ) ;
#121 = ORIENTED_EDGE ( 'NONE', *, *, #112, .T. ) ;
#122 = LOCAL_TIME ( 10, 33, 33.00000000000000000, #181 ) ;
#123 = ORIENTED_EDGE ( 'NONE', *, *, #175, .T. ) ;
#124 = DIRECTION ( 'NONE',  ( -3.491481338843133355E-15, 1.224646799147353207E-16, -1.000000000000000000 ) ) ;
#125 = CARTESIAN_POINT ( 'NONE',  ( 2.094888803305880013E-13, 2.399999999999994138, 60.00000000000000000 ) ) ;
#126 = FACE_OUTER_BOUND ( 'NONE', #146, .T. ) ;
#127 = PERSON_AND_ORGANIZATION ( #28, #13 ) ;
#128 = PERSON_AND_ORGANIZATION_ROLE ( 'creator' ) ;
#129 = PERSON_AND_ORGANIZATION_ROLE ( 'design_owner' ) ;
#130 = ADVANCED_FACE ( 'NONE', ( #126, #139 ), #133, .T. ) ;
#131 = SECURITY_CLASSIFICATION_LEVEL ( 'unclassified' ) ;
#132 = APPROVAL ( #83, 'UNSPECIFIED' ) ;
#133 = CYLINDRICAL_SURFACE ( 'NONE', #39, 2.999999999999997780 ) ;
#134 = AXIS2_PLACEMENT_3D ( 'NONE', #76, #124, #107 ) ;
#135 = CARTESIAN_POINT ( 'NONE',  ( -1.710329175656009201E-30, 5.999027195572725858E-32, -4.898577450861327128E-16 ) ) ;
#136 = CARTESIAN_POINT ( 'NONE',  ( 2.073939915272820834E-13, -7.274401986935278213E-15, 59.39999999999999147 ) ) ;
#137 = APPROVAL ( #66, 'UNSPECIFIED' ) ;
#138 = CYLINDRICAL_SURFACE ( 'NONE', #5, 2.999999999999992450 ) ;
#139 = FACE_OUTER_BOUND ( 'NONE', #7, .T. ) ;
#140 = COORDINATED_UNIVERSAL_TIME_OFFSET ( 1, 0, .AHEAD. ) ;
#141 = PRODUCT_DEFINITION_FORMATION_WITH_SPECIFIED_SOURCE ( 'ANY', '', #30, .NOT_KNOWN. ) ;
#142 = COORDINATED_UNIVERSAL_TIME_OFFSET ( 1, 0, .AHEAD. ) ;
#143 = CC_DESIGN_PERSON_AND_ORGANIZATION_ASSIGNMENT ( #184, #100, ( #141 ) ) ;
#144 = DATE_AND_TIME ( #49, #55 ) ;
#145 = ADVANCED_FACE ( 'NONE', ( #196 ), #45, .T. ) ;
#146 = EDGE_LOOP ( 'NONE', ( #68 ) ) ;
#147 = APPROVAL_PERSON_ORGANIZATION ( #65, #75, #63 ) ;
#148 = EDGE_LOOP ( 'NONE', ( #38 ) ) ;
#149 = ORIENTED_EDGE ( 'NONE', *, *, #201, .T. ) ;
#150 = CARTESIAN_POINT ( 'NONE',  ( 6.982962677686266711E-14, 2.999999999999992006, 20.00000000000000000 ) ) ;
#151 = DIRECTION ( 'NONE',  ( -3.491481338843133355E-15, 1.224646799147353207E-16, -1.000000000000000000 ) ) ;
#152 = AXIS2_PLACEMENT_3D ( 'NONE', #135, #77, #168 ) ;
#153 = PRODUCT_DEFINITION ( 'UNKNOWN', '', #141, #157 ) ;
#154 = CARTESIAN_POINT ( 'NONE',  ( -4.275797418869256481E-31, 2.999999999999990674, -1.224637053419279339E-16 ) ) ;
#155 = DIRECTION ( 'NONE',  ( 0.0000000000000000000, 1.000000000000000000, 0.0000000000000000000 ) ) ;
#156 = APPROVAL_ROLE ( '' ) ;
#157 = DESIGN_CONTEXT ( 'detailed design', #173, 'design' ) ;
#158 = CALENDAR_DATE ( 2021, 8, 12 ) ;
#159 = AXIS2_PLACEMENT_3D ( 'NONE', #40, #25, #195 ) ;
#160 = PERSON_AND_ORGANIZATION_ROLE ( 'creator' ) ;
#161 = SECURITY_CLASSIFICATION ( '', '', #131 ) ;
#162 = APPROVAL_DATE_TIME ( #170, #132 ) ;
#163 = PERSON_AND_ORGANIZATION ( #28, #13 ) ;
#164 = ORIENTED_EDGE ( 'NONE', *, *, #175, .F. ) ;
#165 = ADVANCED_FACE ( 'NONE', ( #11, #41 ), #138, .T. ) ;
#166 = CARTESIAN_POINT ( 'NONE',  ( 6.982962677686266711E-14, 2.249639673992778475E-32, 20.00000000000000000 ) ) ;
#167 = APPROVAL_PERSON_ORGANIZATION ( #127, #137, #80 ) ;
#168 = DIRECTION ( 'NONE',  ( 4.275831445896958607E-31, 1.000000000000000000, 1.224646799147353207E-16 ) ) ;
#169 = VERTEX_POINT ( 'NONE', #180 ) ;
#170 = DATE_AND_TIME ( #158, #97 ) ;
#171 = APPROVAL_PERSON_ORGANIZATION ( #16, #132, #156 ) ;
#172 = COORDINATED_UNIVERSAL_TIME_OFFSET ( 1, 0, .AHEAD. ) ;
#173 = APPLICATION_CONTEXT ( 'configuration controlled 3d designs of mechanical parts and assemblies' ) ;
#174 = DIRECTION ( 'NONE',  ( 0.0000000000000000000, 1.000000000000000000, 0.0000000000000000000 ) ) ;
#175 = EDGE_CURVE ( 'NONE', #14, #14, #110, .T. ) ;
#176 = AXIS2_PLACEMENT_3D ( 'NONE', #192, #118, #174 ) ;
#177 = CARTESIAN_POINT ( 'NONE',  ( 6.982962677686266711E-14, -2.449293598294706513E-15, 20.00000000000000000 ) ) ;
#178 = DIRECTION ( 'NONE',  ( -4.275831445896958607E-31, -1.000000000000000000, -1.224646799147353207E-16 ) ) ;
#179 = DIRECTION ( 'NONE',  ( -4.275831445896958607E-31, -1.000000000000000000, -1.224646799147353207E-16 ) ) ;
#180 = CARTESIAN_POINT ( 'NONE',  ( 6.982962677686266711E-14, 2.999999999999992006, 20.00000000000000000 ) ) ;
#181 = COORDINATED_UNIVERSAL_TIME_OFFSET ( 1, 0, .AHEAD. ) ;
#182 = CIRCLE ( 'NONE', #185, 2.999999999999994227 ) ;
#183 = APPLICATION_PROTOCOL_DEFINITION ( 'international standard', 'config_control_design', 1994, #189 ) ;
#184 = PERSON_AND_ORGANIZATION ( #28, #13 ) ;
#185 = AXIS2_PLACEMENT_3D ( 'NONE', #177, #60, #22 ) ;
#186 = DIRECTION ( 'NONE',  ( 1.000000000000000000, 0.0000000000000000000, 0.0000000000000000000 ) ) ;
#187 = ADVANCED_FACE ( 'NONE', ( #78 ), #108, .F. ) ;
#188 = ORIENTED_EDGE ( 'NONE', *, *, #72, .F. ) ;
#189 = APPLICATION_CONTEXT ( 'configuration controlled 3d designs of mechanical parts and assemblies' ) ;
#190 = PRODUCT_DEFINITION_SHAPE ( 'NONE', 'NONE',  #153 ) ;
#191 = ORIENTED_EDGE ( 'NONE', *, *, #8, .F. ) ;
#192 = CARTESIAN_POINT ( 'NONE',  ( 2.094888803305880013E-13, -7.347880794884118356E-15, 60.00000000000000000 ) ) ;
#193 = CC_DESIGN_DATE_AND_TIME_ASSIGNMENT ( #31, #116, ( #153 ) ) ;
#194 =( NAMED_UNIT ( * ) PLANE_ANGLE_UNIT ( ) SI_UNIT ( $, .RADIAN. ) );
#195 = DIRECTION ( 'NONE',  ( -4.275831445896958607E-31, -1.000000000000000000, -1.224646799147353207E-16 ) ) ;
#196 = FACE_OUTER_BOUND ( 'NONE', #3, .T. ) ;
#197 = LOCAL_TIME ( 10, 33, 33.00000000000000000, #172 ) ;
#198 = CARTESIAN_POINT ( 'NONE',  ( 6.982962677686266711E-14, -2.449293598294706513E-15, 20.00000000000000000 ) ) ;
#199 = CARTESIAN_POINT ( 'NONE',  ( 0.0000000000000000000, 0.0000000000000000000, 0.0000000000000000000 ) ) ;
#200 = DATE_TIME_ROLE ( 'classification_date' ) ;
#201 = EDGE_CURVE ( 'NONE', #94, #94, #6, .T. ) ;
#202 = CALENDAR_DATE ( 2021, 8, 12 ) ;
#203 = MANIFOLD_SOLID_BREP ( 'Corps-Déplacer/Copier1[1]', #82 ) ;
ENDSEC;
END-ISO-10303-21;
