ISO-10303-21;
HEADER;
FILE_DESCRIPTION (( 'STEP AP203' ),
    '1' );
FILE_NAME ('372666.step',
    '2021-12-08T09:33:33',
    ( '' ),
    ( '' ),
    'SwSTEP 2.0',
    'SolidWorks 2019',
    '' );
FILE_SCHEMA (( 'CONFIG_CONTROL_DESIGN' ));
ENDSEC;

DATA;
#1 = DATE_TIME_ROLE ( 'creation_date' ) ;
#2 = AXIS2_PLACEMENT_3D ( 'NONE', #6, #134, #54 ) ;
#3 = EDGE_LOOP ( 'NONE', ( #146 ) ) ;
#4 = EDGE_LOOP ( 'NONE', ( #131 ) ) ;
#5 = CARTESIAN_POINT ( 'NONE',  ( 1.724791781388508004E-13, -6.049755187787925154E-15, 49.39999999999999858 ) ) ;
#6 = CARTESIAN_POINT ( 'NONE',  ( 1.745740669421566678E-13, -6.123233995736766085E-15, 50.00000000000000000 ) ) ;
#7 = VERTEX_POINT ( 'NONE', #72 ) ;
#8 = APPROVAL ( #109, 'UNSPECIFIED' ) ;
#9 = DIRECTION ( 'NONE',  ( -3.491481338843133355E-15, 1.224646799147353207E-16, -1.000000000000000000 ) ) ;
#10 = CARTESIAN_POINT ( 'NONE',  ( 6.982962677686266711E-14, -2.449293598294706513E-15, 20.00000000000000000 ) ) ;
#11 = DIRECTION ( 'NONE',  ( -3.491481338843133355E-15, 1.224646799147353207E-16, -1.000000000000000000 ) ) ;
#12 = PERSON_AND_ORGANIZATION_ROLE ( 'classification_officer' ) ;
#13 = CIRCLE ( 'NONE', #171, 2.999999999999990674 ) ;
#14 = COORDINATED_UNIVERSAL_TIME_OFFSET ( 1, 0, .AHEAD. ) ;
#15 = ADVANCED_FACE ( 'NONE', ( #176 ), #50, .T. ) ;
#16 = CARTESIAN_POINT ( 'NONE',  ( 6.982962677686266711E-14, 2.999999999999990674, 20.00000000000000000 ) ) ;
#17 = CONICAL_SURFACE ( 'NONE', #2, 2.399999999999996803, 0.7853981633974453924 ) ;
#18 = MECHANICAL_CONTEXT ( 'NONE', #101, 'mechanical' ) ;
#19 = EDGE_LOOP ( 'NONE', ( #66 ) ) ;
#20 = CLOSED_SHELL ( 'NONE', ( #81, #158, #87, #159 ) ) ;
#21 = ORIENTED_EDGE ( 'NONE', *, *, #44, .T. ) ;
#22 = ORIENTED_EDGE ( 'NONE', *, *, #74, .T. ) ;
#23 = PRODUCT_DEFINITION_FORMATION_WITH_SPECIFIED_SOURCE ( 'ANY', '', #34, .NOT_KNOWN. ) ;
#24 = DIRECTION ( 'NONE',  ( 3.491481338843133355E-15, -1.224646799147353207E-16, 1.000000000000000000 ) ) ;
#25 = CYLINDRICAL_SURFACE ( 'NONE', #179, 2.999999999999994671 ) ;
#26 = ORGANIZATION ( 'UNSPECIFIED', 'UNSPECIFIED', '' ) ;
#27 = SECURITY_CLASSIFICATION_LEVEL ( 'unclassified' ) ;
#28 = AXIS2_PLACEMENT_3D ( 'NONE', #10, #103, #185 ) ;
#29 = DIRECTION ( 'NONE',  ( 0.0000000000000000000, 0.0000000000000000000, 1.000000000000000000 ) ) ;
#30 = CALENDAR_DATE ( 2021, 8, 12 ) ;
#31 = CARTESIAN_POINT ( 'NONE',  ( 1.745740669421566678E-13, 2.399999999999990585, 50.00000000000000000 ) ) ;
#32 = AXIS2_PLACEMENT_3D ( 'NONE', #89, #182, #106 ) ;
#33 = DESIGN_CONTEXT ( 'detailed design', #97, 'design' ) ;
#34 = PRODUCT ( '372666', '372666', '', ( #18 ) ) ;
#35 = APPROVAL ( #110, 'UNSPECIFIED' ) ;
#36 = FACE_OUTER_BOUND ( 'NONE', #144, .T. ) ;
#37 = AXIS2_PLACEMENT_3D ( 'NONE', #5, #83, #70 ) ;
#38 = FACE_OUTER_BOUND ( 'NONE', #3, .T. ) ;
#39 = PERSON ( 'UNSPECIFIED', 'UNSPECIFIED', 'UNSPECIFIED', ('UNSPECIFIED'), ('UNSPECIFIED'), ('UNSPECIFIED') ) ;
#40 = FACE_OUTER_BOUND ( 'NONE', #194, .T. ) ;
#41 = LOCAL_TIME ( 10, 33, 33.00000000000000000, #111 ) ;
#42 = CYLINDRICAL_SURFACE ( 'NONE', #32, 2.999999999999992006 ) ;
#43 = CARTESIAN_POINT ( 'NONE',  ( -4.275753076543795256E-31, 2.999999999999990674, -1.224624353272505919E-16 ) ) ;
#44 = EDGE_CURVE ( 'NONE', #7, #7, #183, .T. ) ;
#45 = APPROVAL_DATE_TIME ( #192, #35 ) ;
#46 = DATE_AND_TIME ( #30, #41 ) ;
#47 = CALENDAR_DATE ( 2021, 8, 12 ) ;
#48 = APPROVAL_PERSON_ORGANIZATION ( #188, #35, #76 ) ;
#49 = ORIENTED_EDGE ( 'NONE', *, *, #121, .F. ) ;
#50 = PLANE ( 'NONE',  #137 ) ;
#51 = EDGE_CURVE ( 'NONE', #135, #135, #201, .T. ) ;
#52 = MANIFOLD_SOLID_BREP ( 'Corps-Déplacer/Copier1[1]', #20 ) ;
#53 = CARTESIAN_POINT ( 'NONE',  ( -1.710324741423462991E-30, 5.999011642378630015E-32, -4.898564750714553954E-16 ) ) ;
#54 = DIRECTION ( 'NONE',  ( 0.0000000000000000000, 1.000000000000000000, 0.0000000000000000000 ) ) ;
#55 = CARTESIAN_POINT ( 'NONE',  ( 6.982962677686266711E-14, 2.999999999999990674, 20.00000000000000000 ) ) ;
#56 = FACE_OUTER_BOUND ( 'NONE', #64, .T. ) ;
#57 = APPROVAL_PERSON_ORGANIZATION ( #190, #8, #79 ) ;
#58 = DIRECTION ( 'NONE',  ( 1.000000000000000000, 0.0000000000000000000, 0.0000000000000000000 ) ) ;
#59 = APPLICATION_PROTOCOL_DEFINITION ( 'international standard', 'config_control_design', 1994, #97 ) ;
#60 = APPROVAL_DATE_TIME ( #112, #104 ) ;
#61 = CIRCLE ( 'NONE', #122, 2.399999999999996803 ) ;
#62 = MANIFOLD_SOLID_BREP ( 'Corps-Déplacer/Copier1[2]', #93 ) ;
#63 =( NAMED_UNIT ( * ) SI_UNIT ( $, .STERADIAN. ) SOLID_ANGLE_UNIT ( ) );
#64 = EDGE_LOOP ( 'NONE', ( #21 ) ) ;
#65 = AXIS2_PLACEMENT_3D ( 'NONE', #102, #24, #123 ) ;
#66 = ORIENTED_EDGE ( 'NONE', *, *, #74, .F. ) ;
#67 = PRODUCT_RELATED_PRODUCT_CATEGORY ( 'detail', '', ( #34 ) ) ;
#68 = EDGE_LOOP ( 'NONE', ( #180 ) ) ;
#69 = LOCAL_TIME ( 10, 33, 33.00000000000000000, #75 ) ;
#70 = DIRECTION ( 'NONE',  ( 0.0000000000000000000, 1.000000000000000000, 0.0000000000000000000 ) ) ;
#71 = CARTESIAN_POINT ( 'NONE',  ( 6.982962677686266711E-14, -2.449293598294706513E-15, 20.00000000000000000 ) ) ;
#72 = CARTESIAN_POINT ( 'NONE',  ( 1.724791781388508004E-13, 2.999999999999990674, 49.39999999999999858 ) ) ;
#73 = DIRECTION ( 'NONE',  ( 0.0000000000000000000, 1.000000000000000000, 0.0000000000000000000 ) ) ;
#74 = EDGE_CURVE ( 'NONE', #143, #143, #13, .T. ) ;
#75 = COORDINATED_UNIVERSAL_TIME_OFFSET ( 1, 0, .AHEAD. ) ;
#76 = APPROVAL_ROLE ( '' ) ;
#77 = PERSON_AND_ORGANIZATION_ROLE ( 'design_owner' ) ;
#78 = CALENDAR_DATE ( 2021, 8, 12 ) ;
#79 = APPROVAL_ROLE ( '' ) ;
#80 = ORIENTED_EDGE ( 'NONE', *, *, #51, .F. ) ;
#81 = ADVANCED_FACE ( 'NONE', ( #181 ), #99, .F. ) ;
#82 = CC_DESIGN_APPROVAL ( #8, ( #127 ) ) ;
#83 = DIRECTION ( 'NONE',  ( -3.491481338843133355E-15, 1.224646799147353207E-16, -1.000000000000000000 ) ) ;
#84 = CARTESIAN_POINT ( 'NONE',  ( -8.551623707117314956E-31, 2.999505821189315008E-32, -2.449282375357276977E-16 ) ) ;
#85 = PLANE ( 'NONE',  #186 ) ;
#86 = CC_DESIGN_DATE_AND_TIME_ASSIGNMENT ( #129, #1, ( #127 ) ) ;
#87 = ADVANCED_FACE ( 'NONE', ( #148, #165 ), #17, .T. ) ;
#88 =( GEOMETRIC_REPRESENTATION_CONTEXT ( 3 ) GLOBAL_UNCERTAINTY_ASSIGNED_CONTEXT ( ( #147 ) ) GLOBAL_UNIT_ASSIGNED_CONTEXT ( ( #142, #95, #63 ) ) REPRESENTATION_CONTEXT ( 'NONE', 'WORKASPACE' ) );
#89 = CARTESIAN_POINT ( 'NONE',  ( 0.0000000000000000000, 0.0000000000000000000, 0.0000000000000000000 ) ) ;
#90 = PERSON_AND_ORGANIZATION ( #39, #26 ) ;
#91 = PERSON_AND_ORGANIZATION ( #39, #26 ) ;
#92 = CARTESIAN_POINT ( 'NONE',  ( 0.0000000000000000000, 0.0000000000000000000, 0.0000000000000000000 ) ) ;
#93 = CLOSED_SHELL ( 'NONE', ( #196, #184, #15 ) ) ;
#94 = AXIS2_PLACEMENT_3D ( 'NONE', #92, #29, #58 ) ;
#95 =( NAMED_UNIT ( * ) PLANE_ANGLE_UNIT ( ) SI_UNIT ( $, .RADIAN. ) );
#96 = ORIENTED_EDGE ( 'NONE', *, *, #121, .T. ) ;
#97 = APPLICATION_CONTEXT ( 'configuration controlled 3d designs of mechanical parts and assemblies' ) ;
#98 = ORIENTED_EDGE ( 'NONE', *, *, #44, .F. ) ;
#99 = PLANE ( 'NONE',  #65 ) ;
#100 = PLANE ( 'NONE',  #199 ) ;
#101 = APPLICATION_CONTEXT ( 'configuration controlled 3d designs of mechanical parts and assemblies' ) ;
#102 = CARTESIAN_POINT ( 'NONE',  ( 6.982962677686266711E-14, 2.249639673992777380E-32, 20.00000000000000000 ) ) ;
#103 = DIRECTION ( 'NONE',  ( -3.491481338843133355E-15, 1.224646799147353207E-16, -1.000000000000000000 ) ) ;
#104 = APPROVAL ( #172, 'UNSPECIFIED' ) ;
#105 = APPROVAL_ROLE ( '' ) ;
#106 = DIRECTION ( 'NONE',  ( 4.275831445896958607E-31, 1.000000000000000000, 1.224646799147353207E-16 ) ) ;
#107 = PERSON_AND_ORGANIZATION ( #39, #26 ) ;
#108 = FACE_OUTER_BOUND ( 'NONE', #19, .T. ) ;
#109 = APPROVAL_STATUS ( 'not_yet_approved' ) ;
#110 = APPROVAL_STATUS ( 'not_yet_approved' ) ;
#111 = COORDINATED_UNIVERSAL_TIME_OFFSET ( 1, 0, .AHEAD. ) ;
#112 = DATE_AND_TIME ( #78, #69 ) ;
#113 = CC_DESIGN_PERSON_AND_ORGANIZATION_ASSIGNMENT ( #193, #125, ( #127 ) ) ;
#114 = PERSON_AND_ORGANIZATION_ROLE ( 'creator' ) ;
#115 = ADVANCED_BREP_SHAPE_REPRESENTATION ( '372666', ( #52, #62, #94 ), #88 ) ;
#116 = PERSON_AND_ORGANIZATION ( #39, #26 ) ;
#117 = LOCAL_TIME ( 10, 33, 33.00000000000000000, #14 ) ;
#118 = EDGE_LOOP ( 'NONE', ( #96 ) ) ;
#119 = DIRECTION ( 'NONE',  ( -3.491481338843133355E-15, 1.224646799147353207E-16, -1.000000000000000000 ) ) ;
#120 = DIRECTION ( 'NONE',  ( -3.491481338843133355E-15, 1.224646799147353207E-16, -1.000000000000000000 ) ) ;
#121 = EDGE_CURVE ( 'NONE', #173, #173, #61, .T. ) ;
#122 = AXIS2_PLACEMENT_3D ( 'NONE', #150, #9, #136 ) ;
#123 = DIRECTION ( 'NONE',  ( -4.275831445896958607E-31, -1.000000000000000000, -1.224646799147353207E-16 ) ) ;
#124 = CARTESIAN_POINT ( 'NONE',  ( 1.745740669421566678E-13, 1.799711739194217634E-32, 50.00000000000000000 ) ) ;
#125 = PERSON_AND_ORGANIZATION_ROLE ( 'creator' ) ;
#126 = COORDINATED_UNIVERSAL_TIME_OFFSET ( 1, 0, .AHEAD. ) ;
#127 = PRODUCT_DEFINITION ( 'UNKNOWN', '', #23, #33 ) ;
#128 = CC_DESIGN_SECURITY_CLASSIFICATION ( #187, ( #23 ) ) ;
#129 = DATE_AND_TIME ( #140, #117 ) ;
#130 = CIRCLE ( 'NONE', #28, 2.999999999999993339 ) ;
#131 = ORIENTED_EDGE ( 'NONE', *, *, #154, .F. ) ;
#132 = DIRECTION ( 'NONE',  ( -4.275831445896958607E-31, -1.000000000000000000, -1.224646799147353207E-16 ) ) ;
#133 = DIRECTION ( 'NONE',  ( -3.491481338843133355E-15, 1.224646799147353207E-16, -1.000000000000000000 ) ) ;
#134 = DIRECTION ( 'NONE',  ( -3.491481338843133355E-15, 1.224646799147353207E-16, -1.000000000000000000 ) ) ;
#135 = VERTEX_POINT ( 'NONE', #55 ) ;
#136 = DIRECTION ( 'NONE',  ( 0.0000000000000000000, 1.000000000000000000, 0.0000000000000000000 ) ) ;
#137 = AXIS2_PLACEMENT_3D ( 'NONE', #160, #178, #132 ) ;
#138 = CC_DESIGN_DATE_AND_TIME_ASSIGNMENT ( #46, #167, ( #187 ) ) ;
#139 = APPLICATION_PROTOCOL_DEFINITION ( 'international standard', 'config_control_design', 1994, #101 ) ;
#140 = CALENDAR_DATE ( 2021, 8, 12 ) ;
#141 = PRODUCT_DEFINITION_SHAPE ( 'NONE', 'NONE',  #127 ) ;
#142 =( LENGTH_UNIT ( ) NAMED_UNIT ( * ) SI_UNIT ( .MILLI., .METRE. ) );
#143 = VERTEX_POINT ( 'NONE', #43 ) ;
#144 = EDGE_LOOP ( 'NONE', ( #22 ) ) ;
#145 = CC_DESIGN_PERSON_AND_ORGANIZATION_ASSIGNMENT ( #91, #77, ( #34 ) ) ;
#146 = ORIENTED_EDGE ( 'NONE', *, *, #154, .T. ) ;
#147 = UNCERTAINTY_MEASURE_WITH_UNIT (LENGTH_MEASURE( 1.000000000000000082E-05 ), #142, 'distance_accuracy_value', 'NONE');
#148 = FACE_OUTER_BOUND ( 'NONE', #162, .T. ) ;
#149 = DIRECTION ( 'NONE',  ( 3.491481338843133355E-15, -1.224646799147353207E-16, 1.000000000000000000 ) ) ;
#150 = CARTESIAN_POINT ( 'NONE',  ( 1.745740669421566678E-13, -6.123233995736766085E-15, 50.00000000000000000 ) ) ;
#151 = DIRECTION ( 'NONE',  ( 4.275831445896959482E-31, 1.000000000000000000, 1.224646799147353207E-16 ) ) ;
#152 = CARTESIAN_POINT ( 'NONE',  ( 0.0000000000000000000, 0.0000000000000000000, 0.0000000000000000000 ) ) ;
#153 = SHAPE_DEFINITION_REPRESENTATION ( #141, #115 ) ;
#154 = EDGE_CURVE ( 'NONE', #189, #189, #130, .T. ) ;
#155 = APPROVAL_DATE_TIME ( #170, #8 ) ;
#156 = APPROVAL_PERSON_ORGANIZATION ( #107, #104, #105 ) ;
#157 = EDGE_LOOP ( 'NONE', ( #80 ) ) ;
#158 = ADVANCED_FACE ( 'NONE', ( #166, #56 ), #25, .T. ) ;
#159 = ADVANCED_FACE ( 'NONE', ( #40 ), #85, .F. ) ;
#160 = CARTESIAN_POINT ( 'NONE',  ( 6.982962677686266711E-14, 2.249639673992777380E-32, 20.00000000000000000 ) ) ;
#161 = LOCAL_TIME ( 10, 33, 33.00000000000000000, #126 ) ;
#162 = EDGE_LOOP ( 'NONE', ( #98 ) ) ;
#163 = AXIS2_PLACEMENT_3D ( 'NONE', #71, #133, #73 ) ;
#164 = DIRECTION ( 'NONE',  ( 4.275831445896958607E-31, 1.000000000000000000, 1.224646799147353207E-16 ) ) ;
#165 = FACE_BOUND ( 'NONE', #118, .T. ) ;
#166 = FACE_OUTER_BOUND ( 'NONE', #157, .T. ) ;
#167 = DATE_TIME_ROLE ( 'classification_date' ) ;
#168 = DIRECTION ( 'NONE',  ( -4.275831445896958607E-31, -1.000000000000000000, -1.224646799147353207E-16 ) ) ;
#169 = PERSON_AND_ORGANIZATION_ROLE ( 'design_supplier' ) ;
#170 = DATE_AND_TIME ( #203, #175 ) ;
#171 = AXIS2_PLACEMENT_3D ( 'NONE', #53, #119, #198 ) ;
#172 = APPROVAL_STATUS ( 'not_yet_approved' ) ;
#173 = VERTEX_POINT ( 'NONE', #31 ) ;
#174 = PERSON_AND_ORGANIZATION ( #39, #26 ) ;
#175 = LOCAL_TIME ( 10, 33, 33.00000000000000000, #202 ) ;
#176 = FACE_OUTER_BOUND ( 'NONE', #4, .T. ) ;
#177 = CC_DESIGN_PERSON_AND_ORGANIZATION_ASSIGNMENT ( #90, #12, ( #187 ) ) ;
#178 = DIRECTION ( 'NONE',  ( 3.491481338843133355E-15, -1.224646799147353207E-16, 1.000000000000000000 ) ) ;
#179 = AXIS2_PLACEMENT_3D ( 'NONE', #152, #11, #151 ) ;
#180 = ORIENTED_EDGE ( 'NONE', *, *, #51, .T. ) ;
#181 = FACE_OUTER_BOUND ( 'NONE', #68, .T. ) ;
#182 = DIRECTION ( 'NONE',  ( -3.491481338843133355E-15, 1.224646799147353207E-16, -1.000000000000000000 ) ) ;
#183 = CIRCLE ( 'NONE', #37, 2.999999999999996447 ) ;
#184 = ADVANCED_FACE ( 'NONE', ( #108, #38 ), #42, .T. ) ;
#185 = DIRECTION ( 'NONE',  ( 0.0000000000000000000, 1.000000000000000000, 0.0000000000000000000 ) ) ;
#186 = AXIS2_PLACEMENT_3D ( 'NONE', #124, #120, #164 ) ;
#187 = SECURITY_CLASSIFICATION ( '', '', #27 ) ;
#188 = PERSON_AND_ORGANIZATION ( #39, #26 ) ;
#189 = VERTEX_POINT ( 'NONE', #16 ) ;
#190 = PERSON_AND_ORGANIZATION ( #39, #26 ) ;
#191 = CC_DESIGN_APPROVAL ( #35, ( #23 ) ) ;
#192 = DATE_AND_TIME ( #47, #161 ) ;
#193 = PERSON_AND_ORGANIZATION ( #39, #26 ) ;
#194 = EDGE_LOOP ( 'NONE', ( #49 ) ) ;
#195 = CC_DESIGN_PERSON_AND_ORGANIZATION_ASSIGNMENT ( #174, #169, ( #23 ) ) ;
#196 = ADVANCED_FACE ( 'NONE', ( #36 ), #100, .F. ) ;
#197 = CC_DESIGN_APPROVAL ( #104, ( #187 ) ) ;
#198 = DIRECTION ( 'NONE',  ( 4.275831445896958607E-31, 1.000000000000000000, 1.224646799147353207E-16 ) ) ;
#199 = AXIS2_PLACEMENT_3D ( 'NONE', #84, #149, #168 ) ;
#200 = CC_DESIGN_PERSON_AND_ORGANIZATION_ASSIGNMENT ( #116, #114, ( #23 ) ) ;
#201 = CIRCLE ( 'NONE', #163, 2.999999999999993339 ) ;
#202 = COORDINATED_UNIVERSAL_TIME_OFFSET ( 1, 0, .AHEAD. ) ;
#203 = CALENDAR_DATE ( 2021, 8, 12 ) ;
ENDSEC;
END-ISO-10303-21;
