ISO-10303-21;
HEADER;
FILE_DESCRIPTION (( 'STEP AP203' ),
    '1' );
FILE_NAME ('372665.step',
    '2021-12-08T09:33:32',
    ( '' ),
    ( '' ),
    'SwSTEP 2.0',
    'SolidWorks 2019',
    '' );
FILE_SCHEMA (( 'CONFIG_CONTROL_DESIGN' ));
ENDSEC;

DATA;
#1 = AXIS2_PLACEMENT_3D ( 'NONE', #205, #47, #98 ) ;
#2 = EDGE_LOOP ( 'NONE', ( #87 ) ) ;
#3 = LOCAL_TIME ( 10, 33, 32.00000000000000000, #108 ) ;
#4 = EDGE_LOOP ( 'NONE', ( #106 ) ) ;
#5 = EDGE_LOOP ( 'NONE', ( #41 ) ) ;
#6 = PRODUCT_DEFINITION_FORMATION_WITH_SPECIFIED_SOURCE ( 'ANY', '', #71, .NOT_KNOWN. ) ;
#7 = FACE_OUTER_BOUND ( 'NONE', #125, .T. ) ;
#8 = PRODUCT_DEFINITION ( 'UNKNOWN', '', #6, #182 ) ;
#9 = DATE_AND_TIME ( #55, #14 ) ;
#10 = DIRECTION ( 'NONE',  ( 3.491481338843133355E-15, -1.276467311168695266E-16, 1.000000000000000000 ) ) ;
#11 = CARTESIAN_POINT ( 'NONE',  ( 2.793185071074506684E-13, -9.797174393178826052E-15, 80.00000000000000000 ) ) ;
#12 = DIRECTION ( 'NONE',  ( -4.275831445896958607E-31, -1.000000000000000000, -1.224646799147353207E-16 ) ) ;
#13 = FACE_OUTER_BOUND ( 'NONE', #204, .T. ) ;
#14 = LOCAL_TIME ( 10, 33, 32.00000000000000000, #217 ) ;
#15 = DIRECTION ( 'NONE',  ( 4.275831445896958607E-31, 1.000000000000000000, 1.224646799147353207E-16 ) ) ;
#16 = EDGE_CURVE ( 'NONE', #211, #211, #222, .T. ) ;
#17 = DIRECTION ( 'NONE',  ( -4.275831445896958607E-31, -1.000000000000000000, -1.224646799147353207E-16 ) ) ;
#18 = CARTESIAN_POINT ( 'NONE',  ( -6.413786353522005134E-31, 2.249653418127174030E-32, -1.836981421658449264E-16 ) ) ;
#19 = CIRCLE ( 'NONE', #198, 3.200000000000003730 ) ;
#20 = ADVANCED_FACE ( 'NONE', ( #111 ), #113, .T. ) ;
#21 = VERTEX_POINT ( 'NONE', #158 ) ;
#22 = ORIENTED_EDGE ( 'NONE', *, *, #144, .T. ) ;
#23 = LOCAL_TIME ( 10, 33, 32.00000000000000000, #207 ) ;
#24 = ORIENTED_EDGE ( 'NONE', *, *, #16, .F. ) ;
#25 = PERSON_AND_ORGANIZATION_ROLE ( 'creator' ) ;
#26 = PERSON_AND_ORGANIZATION_ROLE ( 'design_supplier' ) ;
#27 = CIRCLE ( 'NONE', #97, 2.499999999999997335 ) ;
#28 = AXIS2_PLACEMENT_3D ( 'NONE', #61, #197, #49 ) ;
#29 = DIRECTION ( 'NONE',  ( -4.275831445896958607E-31, -1.000000000000000000, -1.224646799147353207E-16 ) ) ;
#30 = DIRECTION ( 'NONE',  ( 0.0000000000000000000, -1.000000000000000000, 0.0000000000000000000 ) ) ;
#31 = DATE_TIME_ROLE ( 'creation_date' ) ;
#32 = CONICAL_SURFACE ( 'NONE', #52, 7.499999999999997335, 0.2617993877991502960 ) ;
#33 = PERSON ( 'UNSPECIFIED', 'UNSPECIFIED', 'UNSPECIFIED', ('UNSPECIFIED'), ('UNSPECIFIED'), ('UNSPECIFIED') ) ;
#34 = ADVANCED_FACE ( 'NONE', ( #91, #7 ), #75, .T. ) ;
#35 = DIRECTION ( 'NONE',  ( 0.0000000000000000000, 1.000000000000000000, 0.0000000000000000000 ) ) ;
#36 = CONICAL_SURFACE ( 'NONE', #194, 3.200000000000003730, 0.7853981633974593812 ) ;
#37 = CARTESIAN_POINT ( 'NONE',  ( 8.728703347107833388E-14, -2.500000000000000444, 25.00000000000000000 ) ) ;
#38 = ADVANCED_FACE ( 'NONE', ( #56 ), #167, .F. ) ;
#39 = PERSON_AND_ORGANIZATION ( #33, #214 ) ;
#40 = DIRECTION ( 'NONE',  ( 1.000000000000000000, 0.0000000000000000000, 0.0000000000000000000 ) ) ;
#41 = ORIENTED_EDGE ( 'NONE', *, *, #218, .T. ) ;
#42 = EDGE_LOOP ( 'NONE', ( #131 ) ) ;
#43 = AXIS2_PLACEMENT_3D ( 'NONE', #18, #213, #17 ) ;
#44 = PERSON_AND_ORGANIZATION ( #33, #214 ) ;
#45 = FACE_BOUND ( 'NONE', #5, .T. ) ;
#46 = PLANE ( 'NONE',  #140 ) ;
#47 = DIRECTION ( 'NONE',  ( 3.491481338843133355E-15, -1.276467311168695266E-16, 1.000000000000000000 ) ) ;
#48 = FACE_OUTER_BOUND ( 'NONE', #86, .T. ) ;
#49 = DIRECTION ( 'NONE',  ( 0.0000000000000000000, -1.000000000000000000, 0.0000000000000000000 ) ) ;
#50 = PERSON_AND_ORGANIZATION_ROLE ( 'design_owner' ) ;
#51 = PERSON_AND_ORGANIZATION ( #33, #214 ) ;
#52 = AXIS2_PLACEMENT_3D ( 'NONE', #94, #112, #172 ) ;
#53 = ORIENTED_EDGE ( 'NONE', *, *, #218, .F. ) ;
#54 = CARTESIAN_POINT ( 'NONE',  ( 8.728703347107833388E-14, -3.191168277921738509E-15, 25.00000000000000000 ) ) ;
#55 = CALENDAR_DATE ( 2021, 8, 12 ) ;
#56 = FACE_OUTER_BOUND ( 'NONE', #215, .T. ) ;
#57 = CALENDAR_DATE ( 2021, 8, 12 ) ;
#58 = CARTESIAN_POINT ( 'NONE',  ( 2.793185071074506684E-13, -9.797174393178826052E-15, 80.00000000000000000 ) ) ;
#59 = DIRECTION ( 'NONE',  ( 3.491481338843133355E-15, -1.276467311168695266E-16, 1.000000000000000000 ) ) ;
#60 = AXIS2_PLACEMENT_3D ( 'NONE', #129, #10, #169 ) ;
#61 = CARTESIAN_POINT ( 'NONE',  ( 8.728703347107833388E-14, -3.191168277921738509E-15, 25.00000000000000000 ) ) ;
#62 =( LENGTH_UNIT ( ) NAMED_UNIT ( * ) SI_UNIT ( .MILLI., .METRE. ) );
#63 = MECHANICAL_CONTEXT ( 'NONE', #121, 'mechanical' ) ;
#64 = AXIS2_PLACEMENT_3D ( 'NONE', #196, #65, #40 ) ;
#65 = DIRECTION ( 'NONE',  ( 0.0000000000000000000, 0.0000000000000000000, 1.000000000000000000 ) ) ;
#66 = CC_DESIGN_APPROVAL ( #92, ( #101 ) ) ;
#67 = MANIFOLD_SOLID_BREP ( 'Corps-Déplacer/Copier1[2]', #153 ) ;
#68 = CC_DESIGN_PERSON_AND_ORGANIZATION_ASSIGNMENT ( #184, #25, ( #6 ) ) ;
#69 = ORIENTED_EDGE ( 'NONE', *, *, #96, .F. ) ;
#70 = ORIENTED_EDGE ( 'NONE', *, *, #144, .F. ) ;
#71 = PRODUCT ( '372665', '372665', '', ( #63 ) ) ;
#72 = EDGE_LOOP ( 'NONE', ( #22 ) ) ;
#73 = CARTESIAN_POINT ( 'NONE',  ( 8.728703347107833388E-14, 2.999519565323707552E-32, 25.00000000000000000 ) ) ;
#74 = DATE_AND_TIME ( #219, #23 ) ;
#75 = CYLINDRICAL_SURFACE ( 'NONE', #216, 4.000000000000000000 ) ;
#76 = DIRECTION ( 'NONE',  ( -3.491481338843133355E-15, 1.224646799147353207E-16, -1.000000000000000000 ) ) ;
#77 = PRODUCT_RELATED_PRODUCT_CATEGORY ( 'detail', '', ( #71 ) ) ;
#78 = CARTESIAN_POINT ( 'NONE',  ( 0.0000000000000000000, 0.0000000000000000000, 0.0000000000000000000 ) ) ;
#79 = PERSON_AND_ORGANIZATION ( #33, #214 ) ;
#80 = EDGE_CURVE ( 'NONE', #103, #103, #27, .T. ) ;
#81 = CC_DESIGN_SECURITY_CLASSIFICATION ( #101, ( #6 ) ) ;
#82 = CARTESIAN_POINT ( 'NONE',  ( 1.068326120964400576E-13, -4.000000000000004441, 30.59807621135330535 ) ) ;
#83 = COORDINATED_UNIVERSAL_TIME_OFFSET ( 1, 0, .AHEAD. ) ;
#84 = APPROVAL_PERSON_ORGANIZATION ( #44, #110, #150 ) ;
#85 = VERTEX_POINT ( 'NONE', #179 ) ;
#86 = EDGE_LOOP ( 'NONE', ( #162 ) ) ;
#87 = ORIENTED_EDGE ( 'NONE', *, *, #80, .T. ) ;
#88 = ADVANCED_FACE ( 'NONE', ( #48, #130 ), #191, .T. ) ;
#89 = SECURITY_CLASSIFICATION_LEVEL ( 'unclassified' ) ;
#90 = CIRCLE ( 'NONE', #155, 4.000000000000002665 ) ;
#91 = FACE_OUTER_BOUND ( 'NONE', #161, .T. ) ;
#92 = APPROVAL ( #163, 'UNSPECIFIED' ) ;
#93 = DIRECTION ( 'NONE',  ( -3.491481338843133355E-15, 1.276467311168695266E-16, -1.000000000000000000 ) ) ;
#94 = CARTESIAN_POINT ( 'NONE',  ( 1.524389622222840165E-13, -5.573088707662931173E-15, 43.66025403784431802 ) ) ;
#95 = APPROVAL_ROLE ( '' ) ;
#96 = EDGE_CURVE ( 'NONE', #201, #201, #126, .T. ) ;
#97 = AXIS2_PLACEMENT_3D ( 'NONE', #54, #59, #209 ) ;
#98 = DIRECTION ( 'NONE',  ( -4.456761796588770537E-31, -1.000000000000000000, -1.276467311168695512E-16 ) ) ;
#99 = CARTESIAN_POINT ( 'NONE',  ( -9.046517534590934809E-32, -2.499999999999998668, -2.591025601067197827E-17 ) ) ;
#100 = AXIS2_PLACEMENT_3D ( 'NONE', #117, #93, #30 ) ;
#101 = SECURITY_CLASSIFICATION ( '', '', #89 ) ;
#102 = PLANE ( 'NONE',  #43 ) ;
#103 = VERTEX_POINT ( 'NONE', #37 ) ;
#104 = CLOSED_SHELL ( 'NONE', ( #34, #135, #164, #115, #38 ) ) ;
#105 = LOCAL_TIME ( 10, 33, 32.00000000000000000, #83 ) ;
#106 = ORIENTED_EDGE ( 'NONE', *, *, #210, .F. ) ;
#107 = CIRCLE ( 'NONE', #28, 2.499999999999997335 ) ;
#108 = COORDINATED_UNIVERSAL_TIME_OFFSET ( 1, 0, .AHEAD. ) ;
#109 = APPROVAL_STATUS ( 'not_yet_approved' ) ;
#110 = APPROVAL ( #109, 'UNSPECIFIED' ) ;
#111 = FACE_OUTER_BOUND ( 'NONE', #2, .T. ) ;
#112 = DIRECTION ( 'NONE',  ( 3.491481338843133355E-15, -1.276467311168695266E-16, 1.000000000000000000 ) ) ;
#113 = PLANE ( 'NONE',  #173 ) ;
#114 = DIRECTION ( 'NONE',  ( -3.491481338843133355E-15, 1.224646799147353207E-16, -1.000000000000000000 ) ) ;
#115 = ADVANCED_FACE ( 'NONE', ( #45, #168 ), #32, .T. ) ;
#116 = CARTESIAN_POINT ( 'NONE',  ( 2.793185071074506684E-13, 2.399615652258959856E-32, 80.00000000000000000 ) ) ;
#117 = CARTESIAN_POINT ( 'NONE',  ( 1.068326120964400576E-13, -3.905744406844097492E-15, 30.59807621135330535 ) ) ;
#118 =( NAMED_UNIT ( * ) PLANE_ANGLE_UNIT ( ) SI_UNIT ( $, .RADIAN. ) );
#119 = CC_DESIGN_DATE_AND_TIME_ASSIGNMENT ( #132, #147, ( #101 ) ) ;
#120 = FACE_OUTER_BOUND ( 'NONE', #128, .T. ) ;
#121 = APPLICATION_CONTEXT ( 'configuration controlled 3d designs of mechanical parts and assemblies' ) ;
#122 = APPROVAL_DATE_TIME ( #212, #160 ) ;
#123 = AXIS2_PLACEMENT_3D ( 'NONE', #73, #146, #29 ) ;
#124 = APPROVAL_PERSON_ORGANIZATION ( #39, #160, #157 ) ;
#125 = EDGE_LOOP ( 'NONE', ( #69 ) ) ;
#126 = CIRCLE ( 'NONE', #100, 4.000000000000000000 ) ;
#127 = PRODUCT_DEFINITION_SHAPE ( 'NONE', 'NONE',  #8 ) ;
#128 = EDGE_LOOP ( 'NONE', ( #24 ) ) ;
#129 = CARTESIAN_POINT ( 'NONE',  ( 1.023725273801282684E-30, -6.087552285867514211E-32, 2.932065717815016532E-16 ) ) ;
#130 = FACE_OUTER_BOUND ( 'NONE', #203, .T. ) ;
#131 = ORIENTED_EDGE ( 'NONE', *, *, #96, .T. ) ;
#132 = DATE_AND_TIME ( #57, #3 ) ;
#133 = DIRECTION ( 'NONE',  ( 0.0000000000000000000, 1.000000000000000000, 0.0000000000000000000 ) ) ;
#134 = SHAPE_DEFINITION_REPRESENTATION ( #127, #221 ) ;
#135 = ADVANCED_FACE ( 'NONE', ( #151, #188 ), #36, .T. ) ;
#136 = APPLICATION_PROTOCOL_DEFINITION ( 'international standard', 'config_control_design', 1994, #121 ) ;
#137 = CC_DESIGN_PERSON_AND_ORGANIZATION_ASSIGNMENT ( #190, #186, ( #101 ) ) ;
#138 = CARTESIAN_POINT ( 'NONE',  ( 2.765253220363762122E-13, 3.999999999999993339, 79.20000000000001705 ) ) ;
#139 = PERSON_AND_ORGANIZATION ( #33, #214 ) ;
#140 = AXIS2_PLACEMENT_3D ( 'NONE', #116, #193, #15 ) ;
#141 = CALENDAR_DATE ( 2021, 8, 12 ) ;
#142 = CALENDAR_DATE ( 2021, 8, 12 ) ;
#143 = ORIENTED_EDGE ( 'NONE', *, *, #80, .F. ) ;
#144 = EDGE_CURVE ( 'NONE', #85, #85, #19, .T. ) ;
#145 = LOCAL_TIME ( 10, 33, 32.00000000000000000, #177 ) ;
#146 = DIRECTION ( 'NONE',  ( 3.491481338843133355E-15, -1.224646799147353207E-16, 1.000000000000000000 ) ) ;
#147 = DATE_TIME_ROLE ( 'classification_date' ) ;
#148 = CARTESIAN_POINT ( 'NONE',  ( 8.728703347107833388E-14, 2.999519565323707552E-32, 25.00000000000000000 ) ) ;
#149 = MANIFOLD_SOLID_BREP ( 'Corps-Déplacer/Copier1[1]', #104 ) ;
#150 = APPROVAL_ROLE ( '' ) ;
#151 = FACE_OUTER_BOUND ( 'NONE', #4, .T. ) ;
#152 = DIRECTION ( 'NONE',  ( -3.491481338843133355E-15, 1.224646799147353207E-16, -1.000000000000000000 ) ) ;
#153 = CLOSED_SHELL ( 'NONE', ( #20, #88, #195 ) ) ;
#154 = CC_DESIGN_PERSON_AND_ORGANIZATION_ASSIGNMENT ( #139, #50, ( #71 ) ) ;
#155 = AXIS2_PLACEMENT_3D ( 'NONE', #223, #159, #35 ) ;
#156 = VERTEX_POINT ( 'NONE', #138 ) ;
#157 = APPROVAL_ROLE ( '' ) ;
#158 = CARTESIAN_POINT ( 'NONE',  ( 8.728703347107833388E-14, -2.500000000000000444, 25.00000000000000000 ) ) ;
#159 = DIRECTION ( 'NONE',  ( -3.491481338843133355E-15, 1.224646799147353207E-16, -1.000000000000000000 ) ) ;
#160 = APPROVAL ( #176, 'UNSPECIFIED' ) ;
#161 = EDGE_LOOP ( 'NONE', ( #181 ) ) ;
#162 = ORIENTED_EDGE ( 'NONE', *, *, #16, .T. ) ;
#163 = APPROVAL_STATUS ( 'not_yet_approved' ) ;
#164 = ADVANCED_FACE ( 'NONE', ( #13 ), #46, .F. ) ;
#165 = PERSON_AND_ORGANIZATION ( #33, #214 ) ;
#166 = UNCERTAINTY_MEASURE_WITH_UNIT (LENGTH_MEASURE( 1.000000000000000082E-05 ), #62, 'distance_accuracy_value', 'NONE');
#167 = PLANE ( 'NONE',  #123 ) ;
#168 = FACE_OUTER_BOUND ( 'NONE', #42, .T. ) ;
#169 = DIRECTION ( 'NONE',  ( -4.456761796588770537E-31, -1.000000000000000000, -1.276467311168695266E-16 ) ) ;
#170 = DIRECTION ( 'NONE',  ( 0.0000000000000000000, 1.000000000000000000, 0.0000000000000000000 ) ) ;
#171 = APPROVAL_DATE_TIME ( #74, #110 ) ;
#172 = DIRECTION ( 'NONE',  ( 0.0000000000000000000, -1.000000000000000000, 0.0000000000000000000 ) ) ;
#173 = AXIS2_PLACEMENT_3D ( 'NONE', #148, #189, #12 ) ;
#174 = CC_DESIGN_APPROVAL ( #160, ( #8 ) ) ;
#175 =( NAMED_UNIT ( * ) SI_UNIT ( $, .STERADIAN. ) SOLID_ANGLE_UNIT ( ) );
#176 = APPROVAL_STATUS ( 'not_yet_approved' ) ;
#177 = COORDINATED_UNIVERSAL_TIME_OFFSET ( 1, 0, .AHEAD. ) ;
#178 = APPROVAL_PERSON_ORGANIZATION ( #165, #92, #95 ) ;
#179 = CARTESIAN_POINT ( 'NONE',  ( 2.793185071074506684E-13, 3.199999999999993516, 80.00000000000000000 ) ) ;
#180 = CC_DESIGN_PERSON_AND_ORGANIZATION_ASSIGNMENT ( #79, #26, ( #6 ) ) ;
#181 = ORIENTED_EDGE ( 'NONE', *, *, #210, .T. ) ;
#182 = DESIGN_CONTEXT ( 'detailed design', #185, 'design' ) ;
#183 = APPROVAL_DATE_TIME ( #9, #92 ) ;
#184 = PERSON_AND_ORGANIZATION ( #33, #214 ) ;
#185 = APPLICATION_CONTEXT ( 'configuration controlled 3d designs of mechanical parts and assemblies' ) ;
#186 = PERSON_AND_ORGANIZATION_ROLE ( 'classification_officer' ) ;
#187 = CC_DESIGN_APPROVAL ( #110, ( #6 ) ) ;
#188 = FACE_BOUND ( 'NONE', #72, .T. ) ;
#189 = DIRECTION ( 'NONE',  ( 3.491481338843133355E-15, -1.224646799147353207E-16, 1.000000000000000000 ) ) ;
#190 = PERSON_AND_ORGANIZATION ( #33, #214 ) ;
#191 = CYLINDRICAL_SURFACE ( 'NONE', #1, 2.499999999999997780 ) ;
#192 = DATE_AND_TIME ( #142, #145 ) ;
#193 = DIRECTION ( 'NONE',  ( -3.491481338843133355E-15, 1.224646799147353207E-16, -1.000000000000000000 ) ) ;
#194 = AXIS2_PLACEMENT_3D ( 'NONE', #11, #76, #133 ) ;
#195 = ADVANCED_FACE ( 'NONE', ( #120 ), #102, .F. ) ;
#196 = CARTESIAN_POINT ( 'NONE',  ( 0.0000000000000000000, 0.0000000000000000000, 0.0000000000000000000 ) ) ;
#197 = DIRECTION ( 'NONE',  ( 3.491481338843133355E-15, -1.276467311168695266E-16, 1.000000000000000000 ) ) ;
#198 = AXIS2_PLACEMENT_3D ( 'NONE', #58, #114, #170 ) ;
#199 = APPLICATION_PROTOCOL_DEFINITION ( 'international standard', 'config_control_design', 1994, #185 ) ;
#200 = PERSON_AND_ORGANIZATION_ROLE ( 'creator' ) ;
#201 = VERTEX_POINT ( 'NONE', #82 ) ;
#202 = CC_DESIGN_DATE_AND_TIME_ASSIGNMENT ( #192, #31, ( #8 ) ) ;
#203 = EDGE_LOOP ( 'NONE', ( #143 ) ) ;
#204 = EDGE_LOOP ( 'NONE', ( #70 ) ) ;
#205 = CARTESIAN_POINT ( 'NONE',  ( -6.413839710158237013E-31, 0.0000000000000000000, -1.836996703606440502E-16 ) ) ;
#206 = CC_DESIGN_PERSON_AND_ORGANIZATION_ASSIGNMENT ( #51, #200, ( #8 ) ) ;
#207 = COORDINATED_UNIVERSAL_TIME_OFFSET ( 1, 0, .AHEAD. ) ;
#208 =( GEOMETRIC_REPRESENTATION_CONTEXT ( 3 ) GLOBAL_UNCERTAINTY_ASSIGNED_CONTEXT ( ( #166 ) ) GLOBAL_UNIT_ASSIGNED_CONTEXT ( ( #62, #118, #175 ) ) REPRESENTATION_CONTEXT ( 'NONE', 'WORKASPACE' ) );
#209 = DIRECTION ( 'NONE',  ( 0.0000000000000000000, -1.000000000000000000, 0.0000000000000000000 ) ) ;
#210 = EDGE_CURVE ( 'NONE', #156, #156, #90, .T. ) ;
#211 = VERTEX_POINT ( 'NONE', #99 ) ;
#212 = DATE_AND_TIME ( #141, #105 ) ;
#213 = DIRECTION ( 'NONE',  ( 3.491481338843133355E-15, -1.224646799147353207E-16, 1.000000000000000000 ) ) ;
#214 = ORGANIZATION ( 'UNSPECIFIED', 'UNSPECIFIED', '' ) ;
#215 = EDGE_LOOP ( 'NONE', ( #53 ) ) ;
#216 = AXIS2_PLACEMENT_3D ( 'NONE', #78, #152, #220 ) ;
#217 = COORDINATED_UNIVERSAL_TIME_OFFSET ( 1, 0, .AHEAD. ) ;
#218 = EDGE_CURVE ( 'NONE', #21, #21, #107, .T. ) ;
#219 = CALENDAR_DATE ( 2021, 8, 12 ) ;
#220 = DIRECTION ( 'NONE',  ( 4.275831445896958607E-31, 1.000000000000000000, 1.224646799147353207E-16 ) ) ;
#221 = ADVANCED_BREP_SHAPE_REPRESENTATION ( '372665', ( #149, #67, #64 ), #208 ) ;
#222 = CIRCLE ( 'NONE', #60, 2.499999999999998668 ) ;
#223 = CARTESIAN_POINT ( 'NONE',  ( 2.765253220363762122E-13, -9.699202649247039195E-15, 79.20000000000001705 ) ) ;
ENDSEC;
END-ISO-10303-21;
