ISO-10303-21;
HEADER;
FILE_DESCRIPTION (( 'STEP AP203' ),
    '1' );
FILE_NAME ('372664.step',
    '2021-12-08T09:33:32',
    ( '' ),
    ( '' ),
    'SwSTEP 2.0',
    'SolidWorks 2019',
    '' );
FILE_SCHEMA (( 'CONFIG_CONTROL_DESIGN' ));
ENDSEC;

DATA;
#1 = ORIENTED_EDGE ( 'NONE', *, *, #97, .T. ) ;
#2 = ADVANCED_FACE ( 'NONE', ( #69, #138 ), #202, .T. ) ;
#3 = ORIENTED_EDGE ( 'NONE', *, *, #23, .T. ) ;
#4 = EDGE_LOOP ( 'NONE', ( #20 ) ) ;
#5 = AXIS2_PLACEMENT_3D ( 'NONE', #24, #161, #203 ) ;
#6 = CARTESIAN_POINT ( 'NONE',  ( 1.349815555280683623E-13, -4.934855052078584576E-15, 38.66025403784433223 ) ) ;
#7 = ADVANCED_BREP_SHAPE_REPRESENTATION ( '372664', ( #100, #173, #192 ), #83 ) ;
#8 = FACE_OUTER_BOUND ( 'NONE', #199, .T. ) ;
#9 = FACE_OUTER_BOUND ( 'NONE', #66, .T. ) ;
#10 = ADVANCED_FACE ( 'NONE', ( #51 ), #119, .F. ) ;
#11 = CARTESIAN_POINT ( 'NONE',  ( -6.413839710158237013E-31, 0.0000000000000000000, -1.836996703606440502E-16 ) ) ;
#12 = DIRECTION ( 'NONE',  ( -3.491481338843133355E-15, 1.224646799147353207E-16, -1.000000000000000000 ) ) ;
#13 = AXIS2_PLACEMENT_3D ( 'NONE', #127, #54, #159 ) ;
#14 = FACE_OUTER_BOUND ( 'NONE', #140, .T. ) ;
#15 = APPROVAL_DATE_TIME ( #115, #204 ) ;
#16 = PERSON_AND_ORGANIZATION ( #129, #92 ) ;
#17 = MECHANICAL_CONTEXT ( 'NONE', #216, 'mechanical' ) ;
#18 = ADVANCED_FACE ( 'NONE', ( #220, #77 ), #105, .T. ) ;
#19 = LOCAL_TIME ( 10, 33, 32.00000000000000000, #151 ) ;
#20 = ORIENTED_EDGE ( 'NONE', *, *, #143, .F. ) ;
#21 = EDGE_LOOP ( 'NONE', ( #1 ) ) ;
#22 = CIRCLE ( 'NONE', #141, 2.499999999999997780 ) ;
#23 = EDGE_CURVE ( 'NONE', #98, #98, #31, .T. ) ;
#24 = CARTESIAN_POINT ( 'NONE',  ( 2.073939915272820834E-13, -7.274401986935278213E-15, 59.39999999999999147 ) ) ;
#25 = FACE_OUTER_BOUND ( 'NONE', #90, .T. ) ;
#26 = AXIS2_PLACEMENT_3D ( 'NONE', #106, #109, #162 ) ;
#27 = DATE_AND_TIME ( #42, #217 ) ;
#28 = CALENDAR_DATE ( 2021, 8, 12 ) ;
#29 = PERSON_AND_ORGANIZATION ( #129, #92 ) ;
#30 =( NAMED_UNIT ( * ) PLANE_ANGLE_UNIT ( ) SI_UNIT ( $, .RADIAN. ) );
#31 = CIRCLE ( 'NONE', #13, 2.999999999999996447 ) ;
#32 = EDGE_LOOP ( 'NONE', ( #181 ) ) ;
#33 = CIRCLE ( 'NONE', #26, 2.499999999999997780 ) ;
#34 = ADVANCED_FACE ( 'NONE', ( #123, #8 ), #113, .T. ) ;
#35 = DIRECTION ( 'NONE',  ( -4.275831445896958607E-31, -1.000000000000000000, -1.224646799147353207E-16 ) ) ;
#36 = DESIGN_CONTEXT ( 'detailed design', #74, 'design' ) ;
#37 = CARTESIAN_POINT ( 'NONE',  ( 0.0000000000000000000, 0.0000000000000000000, 0.0000000000000000000 ) ) ;
#38 = FACE_OUTER_BOUND ( 'NONE', #4, .T. ) ;
#39 = CARTESIAN_POINT ( 'NONE',  ( 1.023725273801282684E-30, -6.087552285867514211E-32, 2.932065717815016532E-16 ) ) ;
#40 = CC_DESIGN_DATE_AND_TIME_ASSIGNMENT ( #171, #103, ( #80 ) ) ;
#41 = EDGE_CURVE ( 'NONE', #205, #205, #152, .T. ) ;
#42 = CALENDAR_DATE ( 2021, 8, 12 ) ;
#43 = CC_DESIGN_APPROVAL ( #158, ( #167 ) ) ;
#44 = APPROVAL_STATUS ( 'not_yet_approved' ) ;
#45 = PERSON_AND_ORGANIZATION ( #129, #92 ) ;
#46 = PRODUCT_DEFINITION_SHAPE ( 'NONE', 'NONE',  #196 ) ;
#47 = CARTESIAN_POINT ( 'NONE',  ( 2.073939915272820834E-13, 2.999999999999991562, 59.39999999999999147 ) ) ;
#48 = ORIENTED_EDGE ( 'NONE', *, *, #79, .T. ) ;
#49 = AXIS2_PLACEMENT_3D ( 'NONE', #213, #93, #200 ) ;
#50 = PERSON_AND_ORGANIZATION_ROLE ( 'design_supplier' ) ;
#51 = FACE_OUTER_BOUND ( 'NONE', #198, .T. ) ;
#52 = AXIS2_PLACEMENT_3D ( 'NONE', #39, #201, #160 ) ;
#53 = CC_DESIGN_DATE_AND_TIME_ASSIGNMENT ( #27, #190, ( #196 ) ) ;
#54 = DIRECTION ( 'NONE',  ( -3.491481338843133355E-15, 1.276467311168695266E-16, -1.000000000000000000 ) ) ;
#55 = DIRECTION ( 'NONE',  ( 0.0000000000000000000, 1.000000000000000000, 0.0000000000000000000 ) ) ;
#56 = DIRECTION ( 'NONE',  ( 3.491481338843133355E-15, -1.276467311168695266E-16, 1.000000000000000000 ) ) ;
#57 = AXIS2_PLACEMENT_3D ( 'NONE', #6, #75, #73 ) ;
#58 = DIRECTION ( 'NONE',  ( 4.275831445896958607E-31, 1.000000000000000000, 1.224646799147353207E-16 ) ) ;
#59 = PERSON_AND_ORGANIZATION_ROLE ( 'design_owner' ) ;
#60 = CC_DESIGN_PERSON_AND_ORGANIZATION_ASSIGNMENT ( #71, #50, ( #167 ) ) ;
#61 = PERSON_AND_ORGANIZATION ( #129, #92 ) ;
#62 =( NAMED_UNIT ( * ) SI_UNIT ( $, .STERADIAN. ) SOLID_ANGLE_UNIT ( ) );
#63 = DATE_AND_TIME ( #28, #164 ) ;
#64 = APPROVAL_ROLE ( '' ) ;
#65 = CARTESIAN_POINT ( 'NONE',  ( 6.982962677686266711E-14, -2.500000000000000444, 20.00000000000000000 ) ) ;
#66 = EDGE_LOOP ( 'NONE', ( #72 ) ) ;
#67 = PERSON_AND_ORGANIZATION_ROLE ( 'creator' ) ;
#68 = APPROVAL ( #214, 'UNSPECIFIED' ) ;
#69 = FACE_OUTER_BOUND ( 'NONE', #176, .T. ) ;
#70 = AXIS2_PLACEMENT_3D ( 'NONE', #212, #88, #121 ) ;
#71 = PERSON_AND_ORGANIZATION ( #129, #92 ) ;
#72 = ORIENTED_EDGE ( 'NONE', *, *, #116, .T. ) ;
#73 = DIRECTION ( 'NONE',  ( 0.0000000000000000000, -1.000000000000000000, 0.0000000000000000000 ) ) ;
#74 = APPLICATION_CONTEXT ( 'configuration controlled 3d designs of mechanical parts and assemblies' ) ;
#75 = DIRECTION ( 'NONE',  ( 3.491481338843133355E-15, -1.276467311168695266E-16, 1.000000000000000000 ) ) ;
#76 = PLANE ( 'NONE',  #134 ) ;
#77 = FACE_OUTER_BOUND ( 'NONE', #32, .T. ) ;
#78 = CC_DESIGN_APPROVAL ( #68, ( #80 ) ) ;
#79 = EDGE_CURVE ( 'NONE', #112, #112, #189, .T. ) ;
#80 = SECURITY_CLASSIFICATION ( '', '', #118 ) ;
#81 = CARTESIAN_POINT ( 'NONE',  ( 7.634481965198321643E-14, -2.999999999999999112, 21.86602540378442683 ) ) ;
#82 = DATE_AND_TIME ( #136, #111 ) ;
#83 =( GEOMETRIC_REPRESENTATION_CONTEXT ( 3 ) GLOBAL_UNCERTAINTY_ASSIGNED_CONTEXT ( ( #218 ) ) GLOBAL_UNIT_ASSIGNED_CONTEXT ( ( #222, #30, #62 ) ) REPRESENTATION_CONTEXT ( 'NONE', 'WORKASPACE' ) );
#84 = CARTESIAN_POINT ( 'NONE',  ( 6.982962677686266711E-14, -2.500000000000000444, 20.00000000000000000 ) ) ;
#85 = PERSON_AND_ORGANIZATION ( #129, #92 ) ;
#86 = ORIENTED_EDGE ( 'NONE', *, *, #41, .F. ) ;
#87 = ADVANCED_FACE ( 'NONE', ( #38 ), #94, .F. ) ;
#88 = DIRECTION ( 'NONE',  ( -3.491481338843133355E-15, 1.224646799147353207E-16, -1.000000000000000000 ) ) ;
#89 = CIRCLE ( 'NONE', #52, 2.499999999999998668 ) ;
#90 = EDGE_LOOP ( 'NONE', ( #156 ) ) ;
#91 = ORIENTED_EDGE ( 'NONE', *, *, #97, .F. ) ;
#92 = ORGANIZATION ( 'UNSPECIFIED', 'UNSPECIFIED', '' ) ;
#93 = DIRECTION ( 'NONE',  ( 3.491481338843133355E-15, -1.224646799147353207E-16, 1.000000000000000000 ) ) ;
#94 = PLANE ( 'NONE',  #130 ) ;
#95 = CYLINDRICAL_SURFACE ( 'NONE', #107, 2.999999999999996447 ) ;
#96 = CARTESIAN_POINT ( 'NONE',  ( 2.094888803305880013E-13, 1.799711739194217087E-32, 60.00000000000000000 ) ) ;
#97 = EDGE_CURVE ( 'NONE', #187, #187, #89, .T. ) ;
#98 = VERTEX_POINT ( 'NONE', #81 ) ;
#99 = DIRECTION ( 'NONE',  ( -3.491481338843133355E-15, 1.224646799147353207E-16, -1.000000000000000000 ) ) ;
#100 = MANIFOLD_SOLID_BREP ( 'Corps-Déplacer/Copier1[1]', #193 ) ;
#101 = AXIS2_PLACEMENT_3D ( 'NONE', #11, #142, #183 ) ;
#102 = CC_DESIGN_PERSON_AND_ORGANIZATION_ASSIGNMENT ( #85, #59, ( #168 ) ) ;
#103 = DATE_TIME_ROLE ( 'classification_date' ) ;
#104 = AXIS2_PLACEMENT_3D ( 'NONE', #96, #99, #206 ) ;
#105 = CYLINDRICAL_SURFACE ( 'NONE', #101, 2.499999999999998224 ) ;
#106 = CARTESIAN_POINT ( 'NONE',  ( 6.982962677686266711E-14, -2.552934622337390728E-15, 20.00000000000000000 ) ) ;
#107 = AXIS2_PLACEMENT_3D ( 'NONE', #37, #12, #58 ) ;
#108 = CARTESIAN_POINT ( 'NONE',  ( 6.982962677686266711E-14, 2.249639673992777927E-32, 20.00000000000000000 ) ) ;
#109 = DIRECTION ( 'NONE',  ( 3.491481338843133355E-15, -1.276467311168695266E-16, 1.000000000000000000 ) ) ;
#110 = PLANE ( 'NONE',  #104 ) ;
#111 = LOCAL_TIME ( 10, 33, 32.00000000000000000, #195 ) ;
#112 = VERTEX_POINT ( 'NONE', #47 ) ;
#113 = CONICAL_SURFACE ( 'NONE', #57, 7.499999999999999112, 0.2617993877991502405 ) ;
#114 = APPROVAL_ROLE ( '' ) ;
#115 = DATE_AND_TIME ( #207, #19 ) ;
#116 = EDGE_CURVE ( 'NONE', #150, #150, #33, .T. ) ;
#117 = APPROVAL_PERSON_ORGANIZATION ( #29, #68, #64 ) ;
#118 = SECURITY_CLASSIFICATION_LEVEL ( 'unclassified' ) ;
#119 = PLANE ( 'NONE',  #49 ) ;
#120 = APPROVAL_DATE_TIME ( #82, #68 ) ;
#121 = DIRECTION ( 'NONE',  ( 0.0000000000000000000, 1.000000000000000000, 0.0000000000000000000 ) ) ;
#122 = ORIENTED_EDGE ( 'NONE', *, *, #79, .F. ) ;
#123 = FACE_BOUND ( 'NONE', #135, .T. ) ;
#124 = DIRECTION ( 'NONE',  ( 3.491481338843133355E-15, -1.224646799147353207E-16, 1.000000000000000000 ) ) ;
#125 = CC_DESIGN_PERSON_AND_ORGANIZATION_ASSIGNMENT ( #175, #67, ( #167 ) ) ;
#126 = CC_DESIGN_SECURITY_CLASSIFICATION ( #80, ( #167 ) ) ;
#127 = CARTESIAN_POINT ( 'NONE',  ( 7.634481965198321643E-14, -2.791126665311508811E-15, 21.86602540378442683 ) ) ;
#128 = FACE_OUTER_BOUND ( 'NONE', #194, .T. ) ;
#129 = PERSON ( 'UNSPECIFIED', 'UNSPECIFIED', 'UNSPECIFIED', ('UNSPECIFIED'), ('UNSPECIFIED'), ('UNSPECIFIED') ) ;
#130 = AXIS2_PLACEMENT_3D ( 'NONE', #145, #124, #35 ) ;
#131 = APPROVAL_ROLE ( '' ) ;
#132 = COORDINATED_UNIVERSAL_TIME_OFFSET ( 1, 0, .AHEAD. ) ;
#133 = DIRECTION ( 'NONE',  ( 1.000000000000000000, 0.0000000000000000000, 0.0000000000000000000 ) ) ;
#134 = AXIS2_PLACEMENT_3D ( 'NONE', #108, #163, #184 ) ;
#135 = EDGE_LOOP ( 'NONE', ( #155 ) ) ;
#136 = CALENDAR_DATE ( 2021, 8, 12 ) ;
#137 = CLOSED_SHELL ( 'NONE', ( #166, #18, #10 ) ) ;
#138 = FACE_BOUND ( 'NONE', #139, .T. ) ;
#139 = EDGE_LOOP ( 'NONE', ( #215 ) ) ;
#140 = EDGE_LOOP ( 'NONE', ( #86 ) ) ;
#141 = AXIS2_PLACEMENT_3D ( 'NONE', #185, #56, #182 ) ;
#142 = DIRECTION ( 'NONE',  ( 3.491481338843133355E-15, -1.276467311168695266E-16, 1.000000000000000000 ) ) ;
#143 = EDGE_CURVE ( 'NONE', #153, #153, #22, .T. ) ;
#144 = DIRECTION ( 'NONE',  ( -3.491481338843133355E-15, 1.224646799147353207E-16, -1.000000000000000000 ) ) ;
#145 = CARTESIAN_POINT ( 'NONE',  ( 6.982962677686266711E-14, 2.249639673992777927E-32, 20.00000000000000000 ) ) ;
#146 = CARTESIAN_POINT ( 'NONE',  ( 2.094888803305880013E-13, -7.347880794884118356E-15, 60.00000000000000000 ) ) ;
#147 = CC_DESIGN_APPROVAL ( #204, ( #196 ) ) ;
#148 = APPROVAL_PERSON_ORGANIZATION ( #16, #158, #114 ) ;
#149 = CC_DESIGN_PERSON_AND_ORGANIZATION_ASSIGNMENT ( #61, #169, ( #196 ) ) ;
#150 = VERTEX_POINT ( 'NONE', #65 ) ;
#151 = COORDINATED_UNIVERSAL_TIME_OFFSET ( 1, 0, .AHEAD. ) ;
#152 = CIRCLE ( 'NONE', #180, 2.399999999999999023 ) ;
#153 = VERTEX_POINT ( 'NONE', #84 ) ;
#154 = APPLICATION_PROTOCOL_DEFINITION ( 'international standard', 'config_control_design', 1994, #74 ) ;
#155 = ORIENTED_EDGE ( 'NONE', *, *, #143, .T. ) ;
#156 = ORIENTED_EDGE ( 'NONE', *, *, #23, .F. ) ;
#157 = APPROVAL_PERSON_ORGANIZATION ( #45, #204, #131 ) ;
#158 = APPROVAL ( #44, 'UNSPECIFIED' ) ;
#159 = DIRECTION ( 'NONE',  ( 0.0000000000000000000, -1.000000000000000000, 0.0000000000000000000 ) ) ;
#160 = DIRECTION ( 'NONE',  ( -4.456761796588770537E-31, -1.000000000000000000, -1.276467311168695266E-16 ) ) ;
#161 = DIRECTION ( 'NONE',  ( -3.491481338843133355E-15, 1.224646799147353207E-16, -1.000000000000000000 ) ) ;
#162 = DIRECTION ( 'NONE',  ( 0.0000000000000000000, -1.000000000000000000, 0.0000000000000000000 ) ) ;
#163 = DIRECTION ( 'NONE',  ( 3.491481338843133355E-15, -1.224646799147353207E-16, 1.000000000000000000 ) ) ;
#164 = LOCAL_TIME ( 10, 33, 32.00000000000000000, #223 ) ;
#165 = CARTESIAN_POINT ( 'NONE',  ( -9.046517534590934809E-32, -2.499999999999998668, -2.591025601067197827E-17 ) ) ;
#166 = ADVANCED_FACE ( 'NONE', ( #9 ), #76, .T. ) ;
#167 = PRODUCT_DEFINITION_FORMATION_WITH_SPECIFIED_SOURCE ( 'ANY', '', #168, .NOT_KNOWN. ) ;
#168 = PRODUCT ( '372664', '372664', '', ( #17 ) ) ;
#169 = PERSON_AND_ORGANIZATION_ROLE ( 'creator' ) ;
#170 = APPROVAL_STATUS ( 'not_yet_approved' ) ;
#171 = DATE_AND_TIME ( #211, #221 ) ;
#172 = COORDINATED_UNIVERSAL_TIME_OFFSET ( 1, 0, .AHEAD. ) ;
#173 = MANIFOLD_SOLID_BREP ( 'Corps-Déplacer/Copier1[2]', #137 ) ;
#174 = CARTESIAN_POINT ( 'NONE',  ( 2.094888803305880013E-13, 2.399999999999991473, 60.00000000000000000 ) ) ;
#175 = PERSON_AND_ORGANIZATION ( #129, #92 ) ;
#176 = EDGE_LOOP ( 'NONE', ( #122 ) ) ;
#177 = PRODUCT_RELATED_PRODUCT_CATEGORY ( 'detail', '', ( #168 ) ) ;
#178 = PERSON_AND_ORGANIZATION ( #129, #92 ) ;
#179 = SHAPE_DEFINITION_REPRESENTATION ( #46, #7 ) ;
#180 = AXIS2_PLACEMENT_3D ( 'NONE', #146, #144, #55 ) ;
#181 = ORIENTED_EDGE ( 'NONE', *, *, #116, .F. ) ;
#182 = DIRECTION ( 'NONE',  ( 0.0000000000000000000, -1.000000000000000000, 0.0000000000000000000 ) ) ;
#183 = DIRECTION ( 'NONE',  ( -4.456761796588771413E-31, -1.000000000000000000, -1.276467311168695266E-16 ) ) ;
#184 = DIRECTION ( 'NONE',  ( -4.275831445896958607E-31, -1.000000000000000000, -1.224646799147353207E-16 ) ) ;
#185 = CARTESIAN_POINT ( 'NONE',  ( 6.982962677686266711E-14, -2.552934622337390728E-15, 20.00000000000000000 ) ) ;
#186 = ADVANCED_FACE ( 'NONE', ( #128, #25 ), #95, .T. ) ;
#187 = VERTEX_POINT ( 'NONE', #165 ) ;
#188 = APPLICATION_PROTOCOL_DEFINITION ( 'international standard', 'config_control_design', 1994, #216 ) ;
#189 = CIRCLE ( 'NONE', #5, 2.999999999999998668 ) ;
#190 = DATE_TIME_ROLE ( 'creation_date' ) ;
#191 = CARTESIAN_POINT ( 'NONE',  ( 0.0000000000000000000, 0.0000000000000000000, 0.0000000000000000000 ) ) ;
#192 = AXIS2_PLACEMENT_3D ( 'NONE', #191, #209, #133 ) ;
#193 = CLOSED_SHELL ( 'NONE', ( #186, #2, #210, #34, #87 ) ) ;
#194 = EDGE_LOOP ( 'NONE', ( #48 ) ) ;
#195 = COORDINATED_UNIVERSAL_TIME_OFFSET ( 1, 0, .AHEAD. ) ;
#196 = PRODUCT_DEFINITION ( 'UNKNOWN', '', #167, #36 ) ;
#197 = PERSON_AND_ORGANIZATION_ROLE ( 'classification_officer' ) ;
#198 = EDGE_LOOP ( 'NONE', ( #91 ) ) ;
#199 = EDGE_LOOP ( 'NONE', ( #3 ) ) ;
#200 = DIRECTION ( 'NONE',  ( -4.275831445896958607E-31, -1.000000000000000000, -1.224646799147353207E-16 ) ) ;
#201 = DIRECTION ( 'NONE',  ( 3.491481338843133355E-15, -1.276467311168695266E-16, 1.000000000000000000 ) ) ;
#202 = CONICAL_SURFACE ( 'NONE', #70, 2.399999999999999023, 0.7853981633974453924 ) ;
#203 = DIRECTION ( 'NONE',  ( 0.0000000000000000000, 1.000000000000000000, 0.0000000000000000000 ) ) ;
#204 = APPROVAL ( #170, 'UNSPECIFIED' ) ;
#205 = VERTEX_POINT ( 'NONE', #174 ) ;
#206 = DIRECTION ( 'NONE',  ( 4.275831445896958607E-31, 1.000000000000000000, 1.224646799147353207E-16 ) ) ;
#207 = CALENDAR_DATE ( 2021, 8, 12 ) ;
#208 = APPROVAL_DATE_TIME ( #63, #158 ) ;
#209 = DIRECTION ( 'NONE',  ( 0.0000000000000000000, 0.0000000000000000000, 1.000000000000000000 ) ) ;
#210 = ADVANCED_FACE ( 'NONE', ( #14 ), #110, .F. ) ;
#211 = CALENDAR_DATE ( 2021, 8, 12 ) ;
#212 = CARTESIAN_POINT ( 'NONE',  ( 2.094888803305880013E-13, -7.347880794884118356E-15, 60.00000000000000000 ) ) ;
#213 = CARTESIAN_POINT ( 'NONE',  ( -5.344808899709470047E-31, 1.874706600394511987E-32, -1.530814110402897908E-16 ) ) ;
#214 = APPROVAL_STATUS ( 'not_yet_approved' ) ;
#215 = ORIENTED_EDGE ( 'NONE', *, *, #41, .T. ) ;
#216 = APPLICATION_CONTEXT ( 'configuration controlled 3d designs of mechanical parts and assemblies' ) ;
#217 = LOCAL_TIME ( 10, 33, 32.00000000000000000, #132 ) ;
#218 = UNCERTAINTY_MEASURE_WITH_UNIT (LENGTH_MEASURE( 1.000000000000000082E-05 ), #222, 'distance_accuracy_value', 'NONE');
#219 = CC_DESIGN_PERSON_AND_ORGANIZATION_ASSIGNMENT ( #178, #197, ( #80 ) ) ;
#220 = FACE_OUTER_BOUND ( 'NONE', #21, .T. ) ;
#221 = LOCAL_TIME ( 10, 33, 32.00000000000000000, #172 ) ;
#222 =( LENGTH_UNIT ( ) NAMED_UNIT ( * ) SI_UNIT ( .MILLI., .METRE. ) );
#223 = COORDINATED_UNIVERSAL_TIME_OFFSET ( 1, 0, .AHEAD. ) ;
ENDSEC;
END-ISO-10303-21;
