ISO-10303-21;
HEADER;
FILE_DESCRIPTION (( 'STEP AP203' ),
    '1' );
FILE_NAME ('372663.step',
    '2021-12-08T09:33:31',
    ( '' ),
    ( '' ),
    'SwSTEP 2.0',
    'SolidWorks 2019',
    '' );
FILE_SCHEMA (( 'CONFIG_CONTROL_DESIGN' ));
ENDSEC;

DATA;
#1 = MANIFOLD_SOLID_BREP ( 'Corps-Déplacer/Copier1[2]', #24 ) ;
#2 = VERTEX_POINT ( 'NONE', #178 ) ;
#3 = LOCAL_TIME ( 10, 33, 31.00000000000000000, #86 ) ;
#4 = DATE_AND_TIME ( #46, #141 ) ;
#5 = FACE_OUTER_BOUND ( 'NONE', #106, .T. ) ;
#6 = FACE_OUTER_BOUND ( 'NONE', #69, .T. ) ;
#7 = APPROVAL_STATUS ( 'not_yet_approved' ) ;
#8 = CYLINDRICAL_SURFACE ( 'NONE', #125, 2.999999999999996003 ) ;
#9 = EDGE_LOOP ( 'NONE', ( #113 ) ) ;
#10 = PERSON_AND_ORGANIZATION ( #75, #115 ) ;
#11 = CARTESIAN_POINT ( 'NONE',  ( -5.344808899709470047E-31, 1.874706600394511987E-32, -1.530814110402897908E-16 ) ) ;
#12 = EDGE_LOOP ( 'NONE', ( #185 ) ) ;
#13 = ADVANCED_FACE ( 'NONE', ( #149 ), #221, .F. ) ;
#14 = APPROVAL_PERSON_ORGANIZATION ( #29, #124, #167 ) ;
#15 = PERSON_AND_ORGANIZATION_ROLE ( 'creator' ) ;
#16 = CARTESIAN_POINT ( 'NONE',  ( 5.586370142149013368E-14, -2.042347697869912425E-15, 16.00000000000000000 ) ) ;
#17 = PLANE ( 'NONE',  #199 ) ;
#18 = CC_DESIGN_PERSON_AND_ORGANIZATION_ASSIGNMENT ( #67, #15, ( #136 ) ) ;
#19 = AXIS2_PLACEMENT_3D ( 'NONE', #190, #30, #152 ) ;
#20 =( GEOMETRIC_REPRESENTATION_CONTEXT ( 3 ) GLOBAL_UNCERTAINTY_ASSIGNED_CONTEXT ( ( #182 ) ) GLOBAL_UNIT_ASSIGNED_CONTEXT ( ( #99, #208, #45 ) ) REPRESENTATION_CONTEXT ( 'NONE', 'WORKASPACE' ) );
#21 = PRODUCT ( '372663', '372663', '', ( #59 ) ) ;
#22 = VERTEX_POINT ( 'NONE', #79 ) ;
#23 = CIRCLE ( 'NONE', #41, 2.499999999999998668 ) ;
#24 = CLOSED_SHELL ( 'NONE', ( #40, #42, #121 ) ) ;
#25 = DATE_AND_TIME ( #32, #3 ) ;
#26 = ADVANCED_FACE ( 'NONE', ( #120, #55 ), #206, .T. ) ;
#27 = APPROVAL_STATUS ( 'not_yet_approved' ) ;
#28 = DIRECTION ( 'NONE',  ( 3.491481338843133355E-15, -1.276467311168695266E-16, 1.000000000000000000 ) ) ;
#29 = PERSON_AND_ORGANIZATION ( #75, #115 ) ;
#30 = DIRECTION ( 'NONE',  ( -3.491481338843133355E-15, 1.224646799147353207E-16, -1.000000000000000000 ) ) ;
#31 = EDGE_LOOP ( 'NONE', ( #88 ) ) ;
#32 = CALENDAR_DATE ( 2021, 8, 12 ) ;
#33 = DIRECTION ( 'NONE',  ( -4.456761796588770537E-31, -1.000000000000000000, -1.276467311168695266E-16 ) ) ;
#34 = ORIENTED_EDGE ( 'NONE', *, *, #211, .T. ) ;
#35 = APPROVAL_DATE_TIME ( #25, #102 ) ;
#36 = EDGE_LOOP ( 'NONE', ( #84 ) ) ;
#37 = DIRECTION ( 'NONE',  ( 3.491481338843133355E-15, -1.276467311168695266E-16, 1.000000000000000000 ) ) ;
#38 = CC_DESIGN_PERSON_AND_ORGANIZATION_ASSIGNMENT ( #10, #147, ( #192 ) ) ;
#39 = EDGE_LOOP ( 'NONE', ( #218 ) ) ;
#40 = ADVANCED_FACE ( 'NONE', ( #223 ), #17, .T. ) ;
#41 = AXIS2_PLACEMENT_3D ( 'NONE', #132, #145, #33 ) ;
#42 = ADVANCED_FACE ( 'NONE', ( #6, #53 ), #127, .T. ) ;
#43 = AXIS2_PLACEMENT_3D ( 'NONE', #215, #65, #72 ) ;
#44 = PRODUCT_RELATED_PRODUCT_CATEGORY ( 'detail', '', ( #21 ) ) ;
#45 =( NAMED_UNIT ( * ) SI_UNIT ( $, .STERADIAN. ) SOLID_ANGLE_UNIT ( ) );
#46 = CALENDAR_DATE ( 2021, 8, 12 ) ;
#47 = FACE_OUTER_BOUND ( 'NONE', #12, .T. ) ;
#48 = APPROVAL_ROLE ( '' ) ;
#49 = CARTESIAN_POINT ( 'NONE',  ( 1.210156301726958542E-13, -4.424268127611107456E-15, 34.66025403784433223 ) ) ;
#50 = CC_DESIGN_APPROVAL ( #176, ( #192 ) ) ;
#51 = DESIGN_CONTEXT ( 'detailed design', #80, 'design' ) ;
#52 = DIRECTION ( 'NONE',  ( 0.0000000000000000000, 0.0000000000000000000, 1.000000000000000000 ) ) ;
#53 = FACE_OUTER_BOUND ( 'NONE', #168, .T. ) ;
#54 = DIRECTION ( 'NONE',  ( 3.491481338843133355E-15, -1.224646799147353207E-16, 1.000000000000000000 ) ) ;
#55 = FACE_BOUND ( 'NONE', #173, .T. ) ;
#56 = CARTESIAN_POINT ( 'NONE',  ( 6.237889429661070826E-14, -2.280539740844032086E-15, 17.86602540378443393 ) ) ;
#57 = CIRCLE ( 'NONE', #98, 2.999999999999996003 ) ;
#58 = DIRECTION ( 'NONE',  ( -3.491481338843133355E-15, 1.224646799147353207E-16, -1.000000000000000000 ) ) ;
#59 = MECHANICAL_CONTEXT ( 'NONE', #166, 'mechanical' ) ;
#60 = DIRECTION ( 'NONE',  ( 0.0000000000000000000, -1.000000000000000000, 0.0000000000000000000 ) ) ;
#61 = ORIENTED_EDGE ( 'NONE', *, *, #148, .T. ) ;
#62 = CARTESIAN_POINT ( 'NONE',  ( 0.0000000000000000000, 0.0000000000000000000, 0.0000000000000000000 ) ) ;
#63 = DIRECTION ( 'NONE',  ( 4.275831445896959482E-31, 1.000000000000000000, 1.224646799147353207E-16 ) ) ;
#64 = CIRCLE ( 'NONE', #193, 2.999999999999998668 ) ;
#65 = DIRECTION ( 'NONE',  ( 3.491481338843133355E-15, -1.224646799147353207E-16, 1.000000000000000000 ) ) ;
#66 = LOCAL_TIME ( 10, 33, 31.00000000000000000, #195 ) ;
#67 = PERSON_AND_ORGANIZATION ( #75, #115 ) ;
#68 = FACE_OUTER_BOUND ( 'NONE', #31, .T. ) ;
#69 = EDGE_LOOP ( 'NONE', ( #34 ) ) ;
#70 = CALENDAR_DATE ( 2021, 8, 12 ) ;
#71 = DIRECTION ( 'NONE',  ( -4.275831445896958607E-31, -1.000000000000000000, -1.224646799147353207E-16 ) ) ;
#72 = DIRECTION ( 'NONE',  ( -4.275831445896958607E-31, -1.000000000000000000, -1.224646799147353207E-16 ) ) ;
#73 = AXIS2_PLACEMENT_3D ( 'NONE', #188, #158, #94 ) ;
#74 = CARTESIAN_POINT ( 'NONE',  ( 5.586370142149013368E-14, 2.249639673992778475E-32, 16.00000000000000000 ) ) ;
#75 = PERSON ( 'UNSPECIFIED', 'UNSPECIFIED', 'UNSPECIFIED', ('UNSPECIFIED'), ('UNSPECIFIED'), ('UNSPECIFIED') ) ;
#76 = CC_DESIGN_PERSON_AND_ORGANIZATION_ASSIGNMENT ( #219, #213, ( #136 ) ) ;
#77 = EDGE_CURVE ( 'NONE', #108, #108, #151, .T. ) ;
#78 = LOCAL_TIME ( 10, 33, 31.00000000000000000, #131 ) ;
#79 = CARTESIAN_POINT ( 'NONE',  ( 6.237889429661070826E-14, -2.999999999999998224, 17.86602540378443393 ) ) ;
#80 = APPLICATION_CONTEXT ( 'configuration controlled 3d designs of mechanical parts and assemblies' ) ;
#81 = APPROVAL_DATE_TIME ( #4, #176 ) ;
#82 = CARTESIAN_POINT ( 'NONE',  ( 0.0000000000000000000, 0.0000000000000000000, 0.0000000000000000000 ) ) ;
#83 = DIRECTION ( 'NONE',  ( 0.0000000000000000000, -1.000000000000000000, 0.0000000000000000000 ) ) ;
#84 = ORIENTED_EDGE ( 'NONE', *, *, #77, .F. ) ;
#85 = CC_DESIGN_PERSON_AND_ORGANIZATION_ASSIGNMENT ( #164, #217, ( #142 ) ) ;
#86 = COORDINATED_UNIVERSAL_TIME_OFFSET ( 1, 0, .AHEAD. ) ;
#87 = CARTESIAN_POINT ( 'NONE',  ( -6.413839710158237013E-31, 0.0000000000000000000, -1.836996703606440502E-16 ) ) ;
#88 = ORIENTED_EDGE ( 'NONE', *, *, #181, .F. ) ;
#89 = CALENDAR_DATE ( 2021, 8, 12 ) ;
#90 = PLANE ( 'NONE',  #104 ) ;
#91 = CIRCLE ( 'NONE', #153, 2.499999999999996447 ) ;
#92 = APPROVAL_DATE_TIME ( #105, #124 ) ;
#93 = ORIENTED_EDGE ( 'NONE', *, *, #138, .T. ) ;
#94 = DIRECTION ( 'NONE',  ( 0.0000000000000000000, 1.000000000000000000, 0.0000000000000000000 ) ) ;
#95 = APPROVAL_PERSON_ORGANIZATION ( #197, #176, #48 ) ;
#96 = CC_DESIGN_DATE_AND_TIME_ASSIGNMENT ( #134, #101, ( #192 ) ) ;
#97 = CARTESIAN_POINT ( 'NONE',  ( 2.094888803305880013E-13, 2.399999999999991473, 60.00000000000000000 ) ) ;
#98 = AXIS2_PLACEMENT_3D ( 'NONE', #56, #187, #184 ) ;
#99 =( LENGTH_UNIT ( ) NAMED_UNIT ( * ) SI_UNIT ( .MILLI., .METRE. ) );
#100 = LOCAL_TIME ( 10, 33, 31.00000000000000000, #154 ) ;
#101 = DATE_TIME_ROLE ( 'classification_date' ) ;
#102 = APPROVAL ( #7, 'UNSPECIFIED' ) ;
#103 = ADVANCED_BREP_SHAPE_REPRESENTATION ( '372663', ( #157, #1, #139 ), #20 ) ;
#104 = AXIS2_PLACEMENT_3D ( 'NONE', #11, #54, #155 ) ;
#105 = DATE_AND_TIME ( #89, #66 ) ;
#106 = EDGE_LOOP ( 'NONE', ( #93 ) ) ;
#107 = APPROVAL_STATUS ( 'not_yet_approved' ) ;
#108 = VERTEX_POINT ( 'NONE', #170 ) ;
#109 = PERSON_AND_ORGANIZATION ( #75, #115 ) ;
#110 = CC_DESIGN_PERSON_AND_ORGANIZATION_ASSIGNMENT ( #122, #189, ( #21 ) ) ;
#111 = ORIENTED_EDGE ( 'NONE', *, *, #181, .T. ) ;
#112 = DIRECTION ( 'NONE',  ( -3.491481338843133355E-15, 1.224646799147353207E-16, -1.000000000000000000 ) ) ;
#113 = ORIENTED_EDGE ( 'NONE', *, *, #211, .F. ) ;
#114 = AXIS2_PLACEMENT_3D ( 'NONE', #49, #28, #83 ) ;
#115 = ORGANIZATION ( 'UNSPECIFIED', 'UNSPECIFIED', '' ) ;
#116 = VERTEX_POINT ( 'NONE', #97 ) ;
#117 = CIRCLE ( 'NONE', #180, 2.399999999999999023 ) ;
#118 = DIRECTION ( 'NONE',  ( 1.000000000000000000, 0.0000000000000000000, 0.0000000000000000000 ) ) ;
#119 = DIRECTION ( 'NONE',  ( 0.0000000000000000000, -1.000000000000000000, 0.0000000000000000000 ) ) ;
#120 = FACE_OUTER_BOUND ( 'NONE', #130, .T. ) ;
#121 = ADVANCED_FACE ( 'NONE', ( #214 ), #90, .F. ) ;
#122 = PERSON_AND_ORGANIZATION ( #75, #115 ) ;
#123 = CARTESIAN_POINT ( 'NONE',  ( 2.073939915272820834E-13, -7.274401986935278213E-15, 59.39999999999999147 ) ) ;
#124 = APPROVAL ( #107, 'UNSPECIFIED' ) ;
#125 = AXIS2_PLACEMENT_3D ( 'NONE', #82, #209, #63 ) ;
#126 = CARTESIAN_POINT ( 'NONE',  ( 5.586370142149013368E-14, -2.499999999999998668, 16.00000000000000000 ) ) ;
#127 = CYLINDRICAL_SURFACE ( 'NONE', #191, 2.499999999999997780 ) ;
#128 = DATE_TIME_ROLE ( 'creation_date' ) ;
#129 = DIRECTION ( 'NONE',  ( 3.491481338843133355E-15, -1.276467311168695266E-16, 1.000000000000000000 ) ) ;
#130 = EDGE_LOOP ( 'NONE', ( #156 ) ) ;
#131 = COORDINATED_UNIVERSAL_TIME_OFFSET ( 1, 0, .AHEAD. ) ;
#132 = CARTESIAN_POINT ( 'NONE',  ( 1.023725273801282684E-30, -6.087552285867514211E-32, 2.932065717815016532E-16 ) ) ;
#133 = CC_DESIGN_APPROVAL ( #102, ( #136 ) ) ;
#134 = DATE_AND_TIME ( #70, #100 ) ;
#135 = CARTESIAN_POINT ( 'NONE',  ( 5.586370142149013368E-14, -2.042347697869912425E-15, 16.00000000000000000 ) ) ;
#136 = PRODUCT_DEFINITION_FORMATION_WITH_SPECIFIED_SOURCE ( 'ANY', '', #21, .NOT_KNOWN. ) ;
#137 = DIRECTION ( 'NONE',  ( 3.491481338843133355E-15, -1.224646799147353207E-16, 1.000000000000000000 ) ) ;
#138 = EDGE_CURVE ( 'NONE', #140, #140, #64, .T. ) ;
#139 = AXIS2_PLACEMENT_3D ( 'NONE', #62, #52, #118 ) ;
#140 = VERTEX_POINT ( 'NONE', #161 ) ;
#141 = LOCAL_TIME ( 10, 33, 31.00000000000000000, #163 ) ;
#142 = PRODUCT_DEFINITION ( 'UNKNOWN', '', #136, #51 ) ;
#143 = SHAPE_DEFINITION_REPRESENTATION ( #160, #103 ) ;
#144 = FACE_OUTER_BOUND ( 'NONE', #39, .T. ) ;
#145 = DIRECTION ( 'NONE',  ( 3.491481338843133355E-15, -1.276467311168695266E-16, 1.000000000000000000 ) ) ;
#146 = EDGE_LOOP ( 'NONE', ( #222 ) ) ;
#147 = PERSON_AND_ORGANIZATION_ROLE ( 'classification_officer' ) ;
#148 = EDGE_CURVE ( 'NONE', #205, #205, #91, .T. ) ;
#149 = FACE_OUTER_BOUND ( 'NONE', #36, .T. ) ;
#150 = APPROVAL_ROLE ( '' ) ;
#151 = CIRCLE ( 'NONE', #162, 2.499999999999996447 ) ;
#152 = DIRECTION ( 'NONE',  ( 4.275831445896958607E-31, 1.000000000000000000, 1.224646799147353207E-16 ) ) ;
#153 = AXIS2_PLACEMENT_3D ( 'NONE', #135, #37, #119 ) ;
#154 = COORDINATED_UNIVERSAL_TIME_OFFSET ( 1, 0, .AHEAD. ) ;
#155 = DIRECTION ( 'NONE',  ( -4.275831445896958607E-31, -1.000000000000000000, -1.224646799147353207E-16 ) ) ;
#156 = ORIENTED_EDGE ( 'NONE', *, *, #138, .F. ) ;
#157 = MANIFOLD_SOLID_BREP ( 'Corps-Déplacer/Copier1[1]', #179 ) ;
#158 = DIRECTION ( 'NONE',  ( -3.491481338843133355E-15, 1.224646799147353207E-16, -1.000000000000000000 ) ) ;
#159 = EDGE_CURVE ( 'NONE', #22, #22, #57, .T. ) ;
#160 = PRODUCT_DEFINITION_SHAPE ( 'NONE', 'NONE',  #142 ) ;
#161 = CARTESIAN_POINT ( 'NONE',  ( 2.073939915272820834E-13, 2.999999999999991562, 59.39999999999999147 ) ) ;
#162 = AXIS2_PLACEMENT_3D ( 'NONE', #16, #204, #60 ) ;
#163 = COORDINATED_UNIVERSAL_TIME_OFFSET ( 1, 0, .AHEAD. ) ;
#164 = PERSON_AND_ORGANIZATION ( #75, #115 ) ;
#165 = PLANE ( 'NONE',  #19 ) ;
#166 = APPLICATION_CONTEXT ( 'configuration controlled 3d designs of mechanical parts and assemblies' ) ;
#167 = APPROVAL_ROLE ( '' ) ;
#168 = EDGE_LOOP ( 'NONE', ( #212 ) ) ;
#169 = SECURITY_CLASSIFICATION_LEVEL ( 'unclassified' ) ;
#170 = CARTESIAN_POINT ( 'NONE',  ( 5.586370142149013368E-14, -2.499999999999998668, 16.00000000000000000 ) ) ;
#171 = DATE_AND_TIME ( #200, #78 ) ;
#172 = DIRECTION ( 'NONE',  ( -4.456761796588770537E-31, -1.000000000000000000, -1.276467311168695512E-16 ) ) ;
#173 = EDGE_LOOP ( 'NONE', ( #111 ) ) ;
#174 = CC_DESIGN_SECURITY_CLASSIFICATION ( #192, ( #136 ) ) ;
#175 = CC_DESIGN_APPROVAL ( #124, ( #142 ) ) ;
#176 = APPROVAL ( #27, 'UNSPECIFIED' ) ;
#177 = ADVANCED_FACE ( 'NONE', ( #68 ), #165, .F. ) ;
#178 = CARTESIAN_POINT ( 'NONE',  ( -9.046517534590934809E-32, -2.499999999999998668, -2.591025601067197827E-17 ) ) ;
#179 = CLOSED_SHELL ( 'NONE', ( #194, #26, #177, #207, #13 ) ) ;
#180 = AXIS2_PLACEMENT_3D ( 'NONE', #198, #112, #203 ) ;
#181 = EDGE_CURVE ( 'NONE', #116, #116, #117, .T. ) ;
#182 = UNCERTAINTY_MEASURE_WITH_UNIT (LENGTH_MEASURE( 1.000000000000000082E-05 ), #99, 'distance_accuracy_value', 'NONE');
#183 = APPLICATION_PROTOCOL_DEFINITION ( 'international standard', 'config_control_design', 1994, #166 ) ;
#184 = DIRECTION ( 'NONE',  ( 0.0000000000000000000, -1.000000000000000000, 0.0000000000000000000 ) ) ;
#185 = ORIENTED_EDGE ( 'NONE', *, *, #159, .T. ) ;
#186 = APPLICATION_PROTOCOL_DEFINITION ( 'international standard', 'config_control_design', 1994, #80 ) ;
#187 = DIRECTION ( 'NONE',  ( -3.491481338843133355E-15, 1.276467311168695266E-16, -1.000000000000000000 ) ) ;
#188 = CARTESIAN_POINT ( 'NONE',  ( 2.094888803305880013E-13, -7.347880794884118356E-15, 60.00000000000000000 ) ) ;
#189 = PERSON_AND_ORGANIZATION_ROLE ( 'design_owner' ) ;
#190 = CARTESIAN_POINT ( 'NONE',  ( 2.094888803305880013E-13, 1.799711739194217087E-32, 60.00000000000000000 ) ) ;
#191 = AXIS2_PLACEMENT_3D ( 'NONE', #87, #129, #172 ) ;
#192 = SECURITY_CLASSIFICATION ( '', '', #169 ) ;
#193 = AXIS2_PLACEMENT_3D ( 'NONE', #123, #58, #220 ) ;
#194 = ADVANCED_FACE ( 'NONE', ( #5, #144 ), #8, .T. ) ;
#195 = COORDINATED_UNIVERSAL_TIME_OFFSET ( 1, 0, .AHEAD. ) ;
#196 = FACE_BOUND ( 'NONE', #146, .T. ) ;
#197 = PERSON_AND_ORGANIZATION ( #75, #115 ) ;
#198 = CARTESIAN_POINT ( 'NONE',  ( 2.094888803305880013E-13, -7.347880794884118356E-15, 60.00000000000000000 ) ) ;
#199 = AXIS2_PLACEMENT_3D ( 'NONE', #74, #137, #71 ) ;
#200 = CALENDAR_DATE ( 2021, 8, 12 ) ;
#201 = APPROVAL_PERSON_ORGANIZATION ( #109, #102, #150 ) ;
#202 = EDGE_LOOP ( 'NONE', ( #61 ) ) ;
#203 = DIRECTION ( 'NONE',  ( 0.0000000000000000000, 1.000000000000000000, 0.0000000000000000000 ) ) ;
#204 = DIRECTION ( 'NONE',  ( 3.491481338843133355E-15, -1.276467311168695266E-16, 1.000000000000000000 ) ) ;
#205 = VERTEX_POINT ( 'NONE', #126 ) ;
#206 = CONICAL_SURFACE ( 'NONE', #73, 2.399999999999999023, 0.7853981633974453924 ) ;
#207 = ADVANCED_FACE ( 'NONE', ( #196, #47 ), #216, .T. ) ;
#208 =( NAMED_UNIT ( * ) PLANE_ANGLE_UNIT ( ) SI_UNIT ( $, .RADIAN. ) );
#209 = DIRECTION ( 'NONE',  ( -3.491481338843133355E-15, 1.224646799147353207E-16, -1.000000000000000000 ) ) ;
#210 = CC_DESIGN_DATE_AND_TIME_ASSIGNMENT ( #171, #128, ( #142 ) ) ;
#211 = EDGE_CURVE ( 'NONE', #2, #2, #23, .T. ) ;
#212 = ORIENTED_EDGE ( 'NONE', *, *, #148, .F. ) ;
#213 = PERSON_AND_ORGANIZATION_ROLE ( 'design_supplier' ) ;
#214 = FACE_OUTER_BOUND ( 'NONE', #9, .T. ) ;
#215 = CARTESIAN_POINT ( 'NONE',  ( 5.586370142149013368E-14, 2.249639673992778475E-32, 16.00000000000000000 ) ) ;
#216 = CONICAL_SURFACE ( 'NONE', #114, 7.499999999999997335, 0.2617993877991501850 ) ;
#217 = PERSON_AND_ORGANIZATION_ROLE ( 'creator' ) ;
#218 = ORIENTED_EDGE ( 'NONE', *, *, #159, .F. ) ;
#219 = PERSON_AND_ORGANIZATION ( #75, #115 ) ;
#220 = DIRECTION ( 'NONE',  ( 0.0000000000000000000, 1.000000000000000000, 0.0000000000000000000 ) ) ;
#221 = PLANE ( 'NONE',  #43 ) ;
#222 = ORIENTED_EDGE ( 'NONE', *, *, #77, .T. ) ;
#223 = FACE_OUTER_BOUND ( 'NONE', #202, .T. ) ;
ENDSEC;
END-ISO-10303-21;
