ISO-10303-21;
HEADER;
FILE_DESCRIPTION (( 'STEP AP203' ),
    '1' );
FILE_NAME ('372662.step',
    '2021-12-08T09:33:31',
    ( '' ),
    ( '' ),
    'SwSTEP 2.0',
    'SolidWorks 2019',
    '' );
FILE_SCHEMA (( 'CONFIG_CONTROL_DESIGN' ));
ENDSEC;

DATA;
#1 = COORDINATED_UNIVERSAL_TIME_OFFSET ( 1, 0, .AHEAD. ) ;
#2 = DATE_AND_TIME ( #36, #190 ) ;
#3 = ADVANCED_FACE ( 'NONE', ( #172 ), #131, .T. ) ;
#4 = AXIS2_PLACEMENT_3D ( 'NONE', #98, #163, #159 ) ;
#5 = EDGE_LOOP ( 'NONE', ( #26 ) ) ;
#6 = ADVANCED_BREP_SHAPE_REPRESENTATION ( '372662', ( #55, #63, #4 ), #56 ) ;
#7 = PLANE ( 'NONE',  #111 ) ;
#8 = EDGE_LOOP ( 'NONE', ( #125 ) ) ;
#9 = CARTESIAN_POINT ( 'NONE',  ( 1.047444401652940007E-13, 2.499999999999991562, 30.00000000000000000 ) ) ;
#10 = CARTESIAN_POINT ( 'NONE',  ( 1.047444401652940007E-13, 1.874699728327312978E-32, 30.00000000000000000 ) ) ;
#11 = PRODUCT_DEFINITION ( 'UNKNOWN', '', #90, #38 ) ;
#12 = APPLICATION_PROTOCOL_DEFINITION ( 'international standard', 'config_control_design', 1994, #93 ) ;
#13 = CARTESIAN_POINT ( 'NONE',  ( 0.0000000000000000000, 0.0000000000000000000, 0.0000000000000000000 ) ) ;
#14 = PERSON_AND_ORGANIZATION ( #45, #73 ) ;
#15 = FACE_OUTER_BOUND ( 'NONE', #29, .T. ) ;
#16 = CARTESIAN_POINT ( 'NONE',  ( 2.444036937190193601E-13, 1.999999999999992673, 70.00000000000000000 ) ) ;
#17 = APPROVAL_DATE_TIME ( #148, #171 ) ;
#18 = CALENDAR_DATE ( 2021, 8, 12 ) ;
#19 = CALENDAR_DATE ( 2021, 8, 12 ) ;
#20 = CC_DESIGN_APPROVAL ( #171, ( #139 ) ) ;
#21 = DATE_TIME_ROLE ( 'classification_date' ) ;
#22 = PRODUCT_DEFINITION_SHAPE ( 'NONE', 'NONE',  #11 ) ;
#23 = EDGE_LOOP ( 'NONE', ( #40 ) ) ;
#24 = LOCAL_TIME ( 10, 33, 31.00000000000000000, #54 ) ;
#25 = DIRECTION ( 'NONE',  ( 4.275831445896957731E-31, 1.000000000000000000, 1.224646799147353207E-16 ) ) ;
#26 = ORIENTED_EDGE ( 'NONE', *, *, #152, .T. ) ;
#27 = ORIENTED_EDGE ( 'NONE', *, *, #51, .F. ) ;
#28 = CARTESIAN_POINT ( 'NONE',  ( 1.047444401652940007E-13, -3.673940397442059178E-15, 30.00000000000000000 ) ) ;
#29 = EDGE_LOOP ( 'NONE', ( #109 ) ) ;
#30 = DIRECTION ( 'NONE',  ( 4.275831445896958607E-31, 1.000000000000000000, 1.224646799147353207E-16 ) ) ;
#31 = CARTESIAN_POINT ( 'NONE',  ( -1.282756153429944638E-30, 4.499302917383090646E-32, -3.673959643315672918E-16 ) ) ;
#32 = PERSON_AND_ORGANIZATION_ROLE ( 'creator' ) ;
#33 = SECURITY_CLASSIFICATION_LEVEL ( 'unclassified' ) ;
#34 = CLOSED_SHELL ( 'NONE', ( #69, #89, #58, #188 ) ) ;
#35 = CIRCLE ( 'NONE', #42, 2.000000000000001332 ) ;
#36 = CALENDAR_DATE ( 2021, 8, 12 ) ;
#37 = CC_DESIGN_PERSON_AND_ORGANIZATION_ASSIGNMENT ( #88, #187, ( #139 ) ) ;
#38 = DESIGN_CONTEXT ( 'detailed design', #137, 'design' ) ;
#39 = EDGE_LOOP ( 'NONE', ( #94 ) ) ;
#40 = ORIENTED_EDGE ( 'NONE', *, *, #51, .T. ) ;
#41 = CARTESIAN_POINT ( 'NONE',  ( 0.0000000000000000000, 0.0000000000000000000, 0.0000000000000000000 ) ) ;
#42 = AXIS2_PLACEMENT_3D ( 'NONE', #146, #198, #132 ) ;
#43 = DIRECTION ( 'NONE',  ( 0.0000000000000000000, 1.000000000000000000, 0.0000000000000000000 ) ) ;
#44 = ORIENTED_EDGE ( 'NONE', *, *, #71, .F. ) ;
#45 = PERSON ( 'UNSPECIFIED', 'UNSPECIFIED', 'UNSPECIFIED', ('UNSPECIFIED'), ('UNSPECIFIED'), ('UNSPECIFIED') ) ;
#46 = PERSON_AND_ORGANIZATION ( #45, #73 ) ;
#47 = DIRECTION ( 'NONE',  ( -4.275831445896958607E-31, -1.000000000000000000, -1.224646799147353207E-16 ) ) ;
#48 = PERSON_AND_ORGANIZATION ( #45, #73 ) ;
#49 = PRODUCT ( '372662', '372662', '', ( #81 ) ) ;
#50 = COORDINATED_UNIVERSAL_TIME_OFFSET ( 1, 0, .AHEAD. ) ;
#51 = EDGE_CURVE ( 'NONE', #59, #59, #185, .T. ) ;
#52 = APPROVAL_ROLE ( '' ) ;
#53 = CC_DESIGN_PERSON_AND_ORGANIZATION_ASSIGNMENT ( #165, #32, ( #11 ) ) ;
#54 = COORDINATED_UNIVERSAL_TIME_OFFSET ( 1, 0, .AHEAD. ) ;
#55 = MANIFOLD_SOLID_BREP ( 'Corps-Déplacer/Copier1[1]', #34 ) ;
#56 =( GEOMETRIC_REPRESENTATION_CONTEXT ( 3 ) GLOBAL_UNCERTAINTY_ASSIGNED_CONTEXT ( ( #124 ) ) GLOBAL_UNIT_ASSIGNED_CONTEXT ( ( #194, #62, #101 ) ) REPRESENTATION_CONTEXT ( 'NONE', 'WORKASPACE' ) );
#57 = DIRECTION ( 'NONE',  ( -3.491481338843133355E-15, 1.224646799147353207E-16, -1.000000000000000000 ) ) ;
#58 = ADVANCED_FACE ( 'NONE', ( #77, #193 ), #122, .T. ) ;
#59 = VERTEX_POINT ( 'NONE', #9 ) ;
#60 = CARTESIAN_POINT ( 'NONE',  ( 2.444036937190193601E-13, -8.572527594031472993E-15, 70.00000000000000000 ) ) ;
#61 = DIRECTION ( 'NONE',  ( 0.0000000000000000000, 1.000000000000000000, 0.0000000000000000000 ) ) ;
#62 =( NAMED_UNIT ( * ) PLANE_ANGLE_UNIT ( ) SI_UNIT ( $, .RADIAN. ) );
#63 = MANIFOLD_SOLID_BREP ( 'Corps-Déplacer/Copier1[2]', #128 ) ;
#64 = DIRECTION ( 'NONE',  ( 0.0000000000000000000, 1.000000000000000000, 0.0000000000000000000 ) ) ;
#65 = DIRECTION ( 'NONE',  ( 4.275831445896959482E-31, 1.000000000000000000, 1.224646799147353454E-16 ) ) ;
#66 = DIRECTION ( 'NONE',  ( 3.491481338843133355E-15, -1.224646799147353207E-16, 1.000000000000000000 ) ) ;
#67 = APPROVAL_ROLE ( '' ) ;
#68 = CALENDAR_DATE ( 2021, 8, 12 ) ;
#69 = ADVANCED_FACE ( 'NONE', ( #113 ), #72, .F. ) ;
#70 = DATE_AND_TIME ( #68, #115 ) ;
#71 = EDGE_CURVE ( 'NONE', #196, #196, #119, .T. ) ;
#72 = PLANE ( 'NONE',  #85 ) ;
#73 = ORGANIZATION ( 'UNSPECIFIED', 'UNSPECIFIED', '' ) ;
#74 = EDGE_LOOP ( 'NONE', ( #114 ) ) ;
#75 = CC_DESIGN_DATE_AND_TIME_ASSIGNMENT ( #167, #166, ( #11 ) ) ;
#76 = CARTESIAN_POINT ( 'NONE',  ( -6.413780767149723191E-31, 2.249651458691545323E-32, -1.836979821657836459E-16 ) ) ;
#77 = FACE_OUTER_BOUND ( 'NONE', #155, .T. ) ;
#78 = CARTESIAN_POINT ( 'NONE',  ( 1.047444401652940007E-13, 2.499999999999991562, 30.00000000000000000 ) ) ;
#79 = CARTESIAN_POINT ( 'NONE',  ( 2.426579530495977493E-13, -8.511295254074105418E-15, 69.50000000000000000 ) ) ;
#80 = AXIS2_PLACEMENT_3D ( 'NONE', #10, #103, #110 ) ;
#81 = MECHANICAL_CONTEXT ( 'NONE', #93, 'mechanical' ) ;
#82 = AXIS2_PLACEMENT_3D ( 'NONE', #13, #57, #65 ) ;
#83 = DIRECTION ( 'NONE',  ( -3.491481338843133355E-15, 1.224646799147353207E-16, -1.000000000000000000 ) ) ;
#84 = FACE_OUTER_BOUND ( 'NONE', #23, .T. ) ;
#85 = AXIS2_PLACEMENT_3D ( 'NONE', #145, #141, #158 ) ;
#86 = CC_DESIGN_PERSON_AND_ORGANIZATION_ASSIGNMENT ( #134, #178, ( #90 ) ) ;
#87 = APPROVAL_STATUS ( 'not_yet_approved' ) ;
#88 = PERSON_AND_ORGANIZATION ( #45, #73 ) ;
#89 = ADVANCED_FACE ( 'NONE', ( #129, #99 ), #160, .T. ) ;
#90 = PRODUCT_DEFINITION_FORMATION_WITH_SPECIFIED_SOURCE ( 'ANY', '', #49, .NOT_KNOWN. ) ;
#91 = PERSON_AND_ORGANIZATION ( #45, #73 ) ;
#92 = CIRCLE ( 'NONE', #173, 2.499999999999990230 ) ;
#93 = APPLICATION_CONTEXT ( 'configuration controlled 3d designs of mechanical parts and assemblies' ) ;
#94 = ORIENTED_EDGE ( 'NONE', *, *, #71, .T. ) ;
#95 = DIRECTION ( 'NONE',  ( 0.0000000000000000000, 1.000000000000000000, 0.0000000000000000000 ) ) ;
#96 = DIRECTION ( 'NONE',  ( -3.491481338843133355E-15, 1.224646799147353207E-16, -1.000000000000000000 ) ) ;
#97 = EDGE_LOOP ( 'NONE', ( #143 ) ) ;
#98 = CARTESIAN_POINT ( 'NONE',  ( 0.0000000000000000000, 0.0000000000000000000, 0.0000000000000000000 ) ) ;
#99 = FACE_OUTER_BOUND ( 'NONE', #39, .T. ) ;
#100 = EDGE_CURVE ( 'NONE', #130, #130, #35, .T. ) ;
#101 =( NAMED_UNIT ( * ) SI_UNIT ( $, .STERADIAN. ) SOLID_ANGLE_UNIT ( ) );
#102 = LOCAL_TIME ( 10, 33, 31.00000000000000000, #203 ) ;
#103 = DIRECTION ( 'NONE',  ( 3.491481338843133355E-15, -1.224646799147353207E-16, 1.000000000000000000 ) ) ;
#104 = APPLICATION_PROTOCOL_DEFINITION ( 'international standard', 'config_control_design', 1994, #137 ) ;
#105 = DIRECTION ( 'NONE',  ( -3.491481338843133355E-15, 1.224646799147353207E-16, -1.000000000000000000 ) ) ;
#106 = DATE_AND_TIME ( #18, #102 ) ;
#107 = SHAPE_DEFINITION_REPRESENTATION ( #22, #6 ) ;
#108 = CC_DESIGN_APPROVAL ( #156, ( #90 ) ) ;
#109 = ORIENTED_EDGE ( 'NONE', *, *, #192, .F. ) ;
#110 = DIRECTION ( 'NONE',  ( -4.275831445896958607E-31, -1.000000000000000000, -1.224646799147353207E-16 ) ) ;
#111 = AXIS2_PLACEMENT_3D ( 'NONE', #76, #66, #47 ) ;
#112 = FACE_OUTER_BOUND ( 'NONE', #126, .T. ) ;
#113 = FACE_OUTER_BOUND ( 'NONE', #5, .T. ) ;
#114 = ORIENTED_EDGE ( 'NONE', *, *, #100, .F. ) ;
#115 = LOCAL_TIME ( 10, 33, 31.00000000000000000, #149 ) ;
#116 = DIRECTION ( 'NONE',  ( -3.491481338843133355E-15, 1.224646799147353207E-16, -1.000000000000000000 ) ) ;
#117 = APPROVAL ( #184, 'UNSPECIFIED' ) ;
#118 = PERSON_AND_ORGANIZATION ( #45, #73 ) ;
#119 = CIRCLE ( 'NONE', #140, 2.500000000000001332 ) ;
#120 = APPROVAL_PERSON_ORGANIZATION ( #48, #171, #52 ) ;
#121 = APPROVAL_STATUS ( 'not_yet_approved' ) ;
#122 = CONICAL_SURFACE ( 'NONE', #168, 2.000000000000001332, 0.7853981633974479459 ) ;
#123 = CC_DESIGN_APPROVAL ( #117, ( #11 ) ) ;
#124 = UNCERTAINTY_MEASURE_WITH_UNIT (LENGTH_MEASURE( 1.000000000000000082E-05 ), #194, 'distance_accuracy_value', 'NONE');
#125 = ORIENTED_EDGE ( 'NONE', *, *, #152, .F. ) ;
#126 = EDGE_LOOP ( 'NONE', ( #195 ) ) ;
#127 = CARTESIAN_POINT ( 'NONE',  ( 2.426579530495977493E-13, 2.499999999999992895, 69.50000000000000000 ) ) ;
#128 = CLOSED_SHELL ( 'NONE', ( #169, #136, #3 ) ) ;
#129 = FACE_OUTER_BOUND ( 'NONE', #8, .T. ) ;
#130 = VERTEX_POINT ( 'NONE', #16 ) ;
#131 = PLANE ( 'NONE',  #80 ) ;
#132 = DIRECTION ( 'NONE',  ( 0.0000000000000000000, 1.000000000000000000, 0.0000000000000000000 ) ) ;
#133 = CC_DESIGN_PERSON_AND_ORGANIZATION_ASSIGNMENT ( #14, #197, ( #49 ) ) ;
#134 = PERSON_AND_ORGANIZATION ( #45, #73 ) ;
#135 = APPROVAL_DATE_TIME ( #2, #156 ) ;
#136 = ADVANCED_FACE ( 'NONE', ( #15, #84 ), #180, .T. ) ;
#137 = APPLICATION_CONTEXT ( 'configuration controlled 3d designs of mechanical parts and assemblies' ) ;
#138 = PRODUCT_RELATED_PRODUCT_CATEGORY ( 'detail', '', ( #49 ) ) ;
#139 = SECURITY_CLASSIFICATION ( '', '', #33 ) ;
#140 = AXIS2_PLACEMENT_3D ( 'NONE', #79, #191, #61 ) ;
#141 = DIRECTION ( 'NONE',  ( 3.491481338843133355E-15, -1.224646799147353207E-16, 1.000000000000000000 ) ) ;
#142 = VERTEX_POINT ( 'NONE', #144 ) ;
#143 = ORIENTED_EDGE ( 'NONE', *, *, #100, .T. ) ;
#144 = CARTESIAN_POINT ( 'NONE',  ( -2.137982919557092780E-31, 2.499999999999990230, -6.123426454473021032E-17 ) ) ;
#145 = CARTESIAN_POINT ( 'NONE',  ( 1.047444401652940007E-13, 1.874699728327312978E-32, 30.00000000000000000 ) ) ;
#146 = CARTESIAN_POINT ( 'NONE',  ( 2.444036937190193601E-13, -8.572527594031472993E-15, 70.00000000000000000 ) ) ;
#147 = LOCAL_TIME ( 10, 33, 31.00000000000000000, #50 ) ;
#148 = DATE_AND_TIME ( #19, #24 ) ;
#149 = COORDINATED_UNIVERSAL_TIME_OFFSET ( 1, 0, .AHEAD. ) ;
#150 = CC_DESIGN_PERSON_AND_ORGANIZATION_ASSIGNMENT ( #91, #183, ( #90 ) ) ;
#151 = CALENDAR_DATE ( 2021, 8, 12 ) ;
#152 = EDGE_CURVE ( 'NONE', #177, #177, #161, .T. ) ;
#153 = AXIS2_PLACEMENT_3D ( 'NONE', #175, #116, #30 ) ;
#154 = APPROVAL_PERSON_ORGANIZATION ( #46, #117, #164 ) ;
#155 = EDGE_LOOP ( 'NONE', ( #44 ) ) ;
#156 = APPROVAL ( #87, 'UNSPECIFIED' ) ;
#157 = FACE_OUTER_BOUND ( 'NONE', #74, .T. ) ;
#158 = DIRECTION ( 'NONE',  ( -4.275831445896958607E-31, -1.000000000000000000, -1.224646799147353207E-16 ) ) ;
#159 = DIRECTION ( 'NONE',  ( 1.000000000000000000, 0.0000000000000000000, 0.0000000000000000000 ) ) ;
#160 = CYLINDRICAL_SURFACE ( 'NONE', #82, 2.499999999999997780 ) ;
#161 = CIRCLE ( 'NONE', #186, 2.499999999999994671 ) ;
#162 = CARTESIAN_POINT ( 'NONE',  ( 1.047444401652940007E-13, -3.673940397442059178E-15, 30.00000000000000000 ) ) ;
#163 = DIRECTION ( 'NONE',  ( 0.0000000000000000000, 0.0000000000000000000, 1.000000000000000000 ) ) ;
#164 = APPROVAL_ROLE ( '' ) ;
#165 = PERSON_AND_ORGANIZATION ( #45, #73 ) ;
#166 = DATE_TIME_ROLE ( 'creation_date' ) ;
#167 = DATE_AND_TIME ( #151, #147 ) ;
#168 = AXIS2_PLACEMENT_3D ( 'NONE', #60, #181, #43 ) ;
#169 = ADVANCED_FACE ( 'NONE', ( #112 ), #7, .F. ) ;
#170 = AXIS2_PLACEMENT_3D ( 'NONE', #41, #96, #199 ) ;
#171 = APPROVAL ( #121, 'UNSPECIFIED' ) ;
#172 = FACE_OUTER_BOUND ( 'NONE', #182, .T. ) ;
#173 = AXIS2_PLACEMENT_3D ( 'NONE', #31, #83, #25 ) ;
#174 = DIRECTION ( 'NONE',  ( -3.491481338843133355E-15, 1.224646799147353207E-16, -1.000000000000000000 ) ) ;
#175 = CARTESIAN_POINT ( 'NONE',  ( 2.444036937190193601E-13, 1.499759782661845565E-32, 70.00000000000000000 ) ) ;
#176 = PLANE ( 'NONE',  #153 ) ;
#177 = VERTEX_POINT ( 'NONE', #78 ) ;
#178 = PERSON_AND_ORGANIZATION_ROLE ( 'creator' ) ;
#179 = CC_DESIGN_SECURITY_CLASSIFICATION ( #139, ( #90 ) ) ;
#180 = CYLINDRICAL_SURFACE ( 'NONE', #170, 2.499999999999992895 ) ;
#181 = DIRECTION ( 'NONE',  ( -3.491481338843133355E-15, 1.224646799147353207E-16, -1.000000000000000000 ) ) ;
#182 = EDGE_LOOP ( 'NONE', ( #27 ) ) ;
#183 = PERSON_AND_ORGANIZATION_ROLE ( 'design_supplier' ) ;
#184 = APPROVAL_STATUS ( 'not_yet_approved' ) ;
#185 = CIRCLE ( 'NONE', #200, 2.499999999999994671 ) ;
#186 = AXIS2_PLACEMENT_3D ( 'NONE', #28, #105, #64 ) ;
#187 = PERSON_AND_ORGANIZATION_ROLE ( 'classification_officer' ) ;
#188 = ADVANCED_FACE ( 'NONE', ( #157 ), #176, .F. ) ;
#189 = APPROVAL_DATE_TIME ( #106, #117 ) ;
#190 = LOCAL_TIME ( 10, 33, 31.00000000000000000, #1 ) ;
#191 = DIRECTION ( 'NONE',  ( -3.491481338843133355E-15, 1.224646799147353207E-16, -1.000000000000000000 ) ) ;
#192 = EDGE_CURVE ( 'NONE', #142, #142, #92, .T. ) ;
#193 = FACE_BOUND ( 'NONE', #97, .T. ) ;
#194 =( LENGTH_UNIT ( ) NAMED_UNIT ( * ) SI_UNIT ( .MILLI., .METRE. ) );
#195 = ORIENTED_EDGE ( 'NONE', *, *, #192, .T. ) ;
#196 = VERTEX_POINT ( 'NONE', #127 ) ;
#197 = PERSON_AND_ORGANIZATION_ROLE ( 'design_owner' ) ;
#198 = DIRECTION ( 'NONE',  ( -3.491481338843133355E-15, 1.224646799147353207E-16, -1.000000000000000000 ) ) ;
#199 = DIRECTION ( 'NONE',  ( 4.275831445896958607E-31, 1.000000000000000000, 1.224646799147352961E-16 ) ) ;
#200 = AXIS2_PLACEMENT_3D ( 'NONE', #162, #174, #95 ) ;
#201 = APPROVAL_PERSON_ORGANIZATION ( #118, #156, #67 ) ;
#202 = CC_DESIGN_DATE_AND_TIME_ASSIGNMENT ( #70, #21, ( #139 ) ) ;
#203 = COORDINATED_UNIVERSAL_TIME_OFFSET ( 1, 0, .AHEAD. ) ;
ENDSEC;
END-ISO-10303-21;
