ISO-10303-21;
HEADER;
FILE_DESCRIPTION (( 'STEP AP203' ),
    '1' );
FILE_NAME ('372661.step',
    '2021-12-08T09:33:30',
    ( '' ),
    ( '' ),
    'SwSTEP 2.0',
    'SolidWorks 2019',
    '' );
FILE_SCHEMA (( 'CONFIG_CONTROL_DESIGN' ));
ENDSEC;

DATA;
#1 = ADVANCED_FACE ( 'NONE', ( #97, #20 ), #46, .T. ) ;
#2 = CIRCLE ( 'NONE', #137, 2.499999999999997335 ) ;
#3 = AXIS2_PLACEMENT_3D ( 'NONE', #122, #187, #101 ) ;
#4 = CC_DESIGN_DATE_AND_TIME_ASSIGNMENT ( #82, #83, ( #192 ) ) ;
#5 = CARTESIAN_POINT ( 'NONE',  ( 0.0000000000000000000, 0.0000000000000000000, 0.0000000000000000000 ) ) ;
#6 = AXIS2_PLACEMENT_3D ( 'NONE', #89, #104, #132 ) ;
#7 = PERSON_AND_ORGANIZATION ( #176, #77 ) ;
#8 = EDGE_CURVE ( 'NONE', #200, #200, #10, .T. ) ;
#9 = DIRECTION ( 'NONE',  ( -4.275831445896958607E-31, -1.000000000000000000, -1.224646799147353207E-16 ) ) ;
#10 = CIRCLE ( 'NONE', #3, 2.499999999999992450 ) ;
#11 = FACE_OUTER_BOUND ( 'NONE', #191, .T. ) ;
#12 = FACE_OUTER_BOUND ( 'NONE', #145, .T. ) ;
#13 = VERTEX_POINT ( 'NONE', #140 ) ;
#14 = EDGE_CURVE ( 'NONE', #168, #168, #31, .T. ) ;
#15 = PRODUCT_DEFINITION_SHAPE ( 'NONE', 'NONE',  #164 ) ;
#16 = APPROVAL_PERSON_ORGANIZATION ( #108, #125, #79 ) ;
#17 = PRODUCT ( '372661', '372661', '', ( #102 ) ) ;
#18 = UNCERTAINTY_MEASURE_WITH_UNIT (LENGTH_MEASURE( 1.000000000000000082E-05 ), #95, 'distance_accuracy_value', 'NONE');
#19 =( GEOMETRIC_REPRESENTATION_CONTEXT ( 3 ) GLOBAL_UNCERTAINTY_ASSIGNED_CONTEXT ( ( #18 ) ) GLOBAL_UNIT_ASSIGNED_CONTEXT ( ( #95, #156, #107 ) ) REPRESENTATION_CONTEXT ( 'NONE', 'WORKASPACE' ) );
#20 = FACE_BOUND ( 'NONE', #100, .T. ) ;
#21 = CALENDAR_DATE ( 2021, 8, 12 ) ;
#22 = EDGE_LOOP ( 'NONE', ( #111 ) ) ;
#23 = CC_DESIGN_PERSON_AND_ORGANIZATION_ASSIGNMENT ( #78, #47, ( #17 ) ) ;
#24 = FACE_OUTER_BOUND ( 'NONE', #54, .T. ) ;
#25 = APPROVAL_DATE_TIME ( #155, #125 ) ;
#26 = AXIS2_PLACEMENT_3D ( 'NONE', #5, #181, #199 ) ;
#27 = PLANE ( 'NONE',  #110 ) ;
#28 = CC_DESIGN_PERSON_AND_ORGANIZATION_ASSIGNMENT ( #7, #112, ( #53 ) ) ;
#29 = DIRECTION ( 'NONE',  ( -3.491481338843133355E-15, 1.224646799147353207E-16, -1.000000000000000000 ) ) ;
#30 = CARTESIAN_POINT ( 'NONE',  ( 2.094888803305880013E-13, 1.999999999999990008, 60.00000000000000000 ) ) ;
#31 = CIRCLE ( 'NONE', #94, 1.999999999999997335 ) ;
#32 = CALENDAR_DATE ( 2021, 8, 12 ) ;
#33 = APPLICATION_PROTOCOL_DEFINITION ( 'international standard', 'config_control_design', 1994, #75 ) ;
#34 = ORIENTED_EDGE ( 'NONE', *, *, #8, .T. ) ;
#35 = APPLICATION_PROTOCOL_DEFINITION ( 'international standard', 'config_control_design', 1994, #186 ) ;
#36 = PERSON_AND_ORGANIZATION ( #176, #77 ) ;
#37 = EDGE_LOOP ( 'NONE', ( #80 ) ) ;
#38 = SECURITY_CLASSIFICATION_LEVEL ( 'unclassified' ) ;
#39 = DIRECTION ( 'NONE',  ( 3.491481338843133355E-15, -1.224646799147353207E-16, 1.000000000000000000 ) ) ;
#40 = ADVANCED_FACE ( 'NONE', ( #67 ), #74, .F. ) ;
#41 = CARTESIAN_POINT ( 'NONE',  ( 5.586370142149013368E-14, 1.874699728327312978E-32, 16.00000000000000000 ) ) ;
#42 = CARTESIAN_POINT ( 'NONE',  ( 0.0000000000000000000, 0.0000000000000000000, 0.0000000000000000000 ) ) ;
#43 = DIRECTION ( 'NONE',  ( 0.0000000000000000000, 1.000000000000000000, 0.0000000000000000000 ) ) ;
#44 = APPROVAL_ROLE ( '' ) ;
#45 = ADVANCED_FACE ( 'NONE', ( #170 ), #27, .F. ) ;
#46 = CONICAL_SURFACE ( 'NONE', #113, 1.999999999999997335, 0.7853981633974548293 ) ;
#47 = PERSON_AND_ORGANIZATION_ROLE ( 'design_owner' ) ;
#48 = ADVANCED_BREP_SHAPE_REPRESENTATION ( '372661', ( #197, #130, #26 ), #19 ) ;
#49 = PRODUCT_RELATED_PRODUCT_CATEGORY ( 'detail', '', ( #17 ) ) ;
#50 = APPROVAL_STATUS ( 'not_yet_approved' ) ;
#51 = AXIS2_PLACEMENT_3D ( 'NONE', #149, #71, #136 ) ;
#52 = ORIENTED_EDGE ( 'NONE', *, *, #14, .T. ) ;
#53 = PRODUCT_DEFINITION_FORMATION_WITH_SPECIFIED_SOURCE ( 'ANY', '', #17, .NOT_KNOWN. ) ;
#54 = EDGE_LOOP ( 'NONE', ( #127 ) ) ;
#55 = CC_DESIGN_APPROVAL ( #114, ( #192 ) ) ;
#56 = DIRECTION ( 'NONE',  ( -3.491481338843133355E-15, 1.224646799147353207E-16, -1.000000000000000000 ) ) ;
#57 = CARTESIAN_POINT ( 'NONE',  ( 0.0000000000000000000, 0.0000000000000000000, 0.0000000000000000000 ) ) ;
#58 = PERSON_AND_ORGANIZATION ( #176, #77 ) ;
#59 = CARTESIAN_POINT ( 'NONE',  ( 5.586370142149013368E-14, 2.499999999999990230, 16.00000000000000000 ) ) ;
#60 = DATE_AND_TIME ( #124, #141 ) ;
#61 = ADVANCED_FACE ( 'NONE', ( #12 ), #103, .F. ) ;
#62 = PERSON_AND_ORGANIZATION_ROLE ( 'creator' ) ;
#63 = AXIS2_PLACEMENT_3D ( 'NONE', #41, #86, #184 ) ;
#64 = ORIENTED_EDGE ( 'NONE', *, *, #8, .F. ) ;
#65 = CYLINDRICAL_SURFACE ( 'NONE', #126, 2.499999999999994671 ) ;
#66 = PERSON_AND_ORGANIZATION ( #176, #77 ) ;
#67 = FACE_OUTER_BOUND ( 'NONE', #193, .T. ) ;
#68 = CARTESIAN_POINT ( 'NONE',  ( 5.586370142149013368E-14, 1.874699728327312978E-32, 16.00000000000000000 ) ) ;
#69 = CALENDAR_DATE ( 2021, 8, 12 ) ;
#70 = CALENDAR_DATE ( 2021, 8, 12 ) ;
#71 = DIRECTION ( 'NONE',  ( -3.491481338843133355E-15, 1.224646799147353207E-16, -1.000000000000000000 ) ) ;
#72 = DATE_AND_TIME ( #69, #119 ) ;
#73 = APPROVAL_PERSON_ORGANIZATION ( #169, #177, #44 ) ;
#74 = PLANE ( 'NONE',  #63 ) ;
#75 = APPLICATION_CONTEXT ( 'configuration controlled 3d designs of mechanical parts and assemblies' ) ;
#76 = CC_DESIGN_PERSON_AND_ORGANIZATION_ASSIGNMENT ( #203, #88, ( #164 ) ) ;
#77 = ORGANIZATION ( 'UNSPECIFIED', 'UNSPECIFIED', '' ) ;
#78 = PERSON_AND_ORGANIZATION ( #176, #77 ) ;
#79 = APPROVAL_ROLE ( '' ) ;
#80 = ORIENTED_EDGE ( 'NONE', *, *, #14, .F. ) ;
#81 = APPROVAL_DATE_TIME ( #72, #114 ) ;
#82 = DATE_AND_TIME ( #21, #183 ) ;
#83 = DATE_TIME_ROLE ( 'classification_date' ) ;
#84 = EDGE_CURVE ( 'NONE', #13, #13, #2, .T. ) ;
#85 = COORDINATED_UNIVERSAL_TIME_OFFSET ( 1, 0, .AHEAD. ) ;
#86 = DIRECTION ( 'NONE',  ( 3.491481338843133355E-15, -1.224646799147353207E-16, 1.000000000000000000 ) ) ;
#87 = CLOSED_SHELL ( 'NONE', ( #40, #118, #1, #45 ) ) ;
#88 = PERSON_AND_ORGANIZATION_ROLE ( 'creator' ) ;
#89 = CARTESIAN_POINT ( 'NONE',  ( -1.282745515301425254E-30, 4.499265603851165500E-32, -3.673929174504624021E-16 ) ) ;
#90 = CC_DESIGN_PERSON_AND_ORGANIZATION_ASSIGNMENT ( #36, #159, ( #192 ) ) ;
#91 = DIRECTION ( 'NONE',  ( 4.275831445896958607E-31, 1.000000000000000000, 1.224646799147353207E-16 ) ) ;
#92 = APPROVAL_ROLE ( '' ) ;
#93 = DIRECTION ( 'NONE',  ( 0.0000000000000000000, 1.000000000000000000, 0.0000000000000000000 ) ) ;
#94 = AXIS2_PLACEMENT_3D ( 'NONE', #152, #117, #43 ) ;
#95 =( LENGTH_UNIT ( ) NAMED_UNIT ( * ) SI_UNIT ( .MILLI., .METRE. ) );
#96 = EDGE_LOOP ( 'NONE', ( #34 ) ) ;
#97 = FACE_OUTER_BOUND ( 'NONE', #158, .T. ) ;
#98 = CARTESIAN_POINT ( 'NONE',  ( 5.586370142149013368E-14, 2.499999999999990230, 16.00000000000000000 ) ) ;
#99 = ORIENTED_EDGE ( 'NONE', *, *, #189, .T. ) ;
#100 = EDGE_LOOP ( 'NONE', ( #52 ) ) ;
#101 = DIRECTION ( 'NONE',  ( 0.0000000000000000000, 1.000000000000000000, 0.0000000000000000000 ) ) ;
#102 = MECHANICAL_CONTEXT ( 'NONE', #186, 'mechanical' ) ;
#103 = PLANE ( 'NONE',  #161 ) ;
#104 = DIRECTION ( 'NONE',  ( -3.491481338843133355E-15, 1.224646799147353207E-16, -1.000000000000000000 ) ) ;
#105 = DIRECTION ( 'NONE',  ( 0.0000000000000000000, 1.000000000000000000, 0.0000000000000000000 ) ) ;
#106 = COORDINATED_UNIVERSAL_TIME_OFFSET ( 1, 0, .AHEAD. ) ;
#107 =( NAMED_UNIT ( * ) SI_UNIT ( $, .STERADIAN. ) SOLID_ANGLE_UNIT ( ) );
#108 = PERSON_AND_ORGANIZATION ( #176, #77 ) ;
#109 = VERTEX_POINT ( 'NONE', #173 ) ;
#110 = AXIS2_PLACEMENT_3D ( 'NONE', #195, #194, #180 ) ;
#111 = ORIENTED_EDGE ( 'NONE', *, *, #84, .T. ) ;
#112 = PERSON_AND_ORGANIZATION_ROLE ( 'design_supplier' ) ;
#113 = AXIS2_PLACEMENT_3D ( 'NONE', #182, #120, #105 ) ;
#114 = APPROVAL ( #146, 'UNSPECIFIED' ) ;
#115 = DIRECTION ( 'NONE',  ( 3.491481338843133355E-15, -1.224646799147353207E-16, 1.000000000000000000 ) ) ;
#116 = CARTESIAN_POINT ( 'NONE',  ( -6.413727576507126272E-31, 2.249632801925582750E-32, -1.836964587252312011E-16 ) ) ;
#117 = DIRECTION ( 'NONE',  ( -3.491481338843133355E-15, 1.224646799147353207E-16, -1.000000000000000000 ) ) ;
#118 = ADVANCED_FACE ( 'NONE', ( #24, #147 ), #65, .T. ) ;
#119 = LOCAL_TIME ( 10, 33, 30.00000000000000000, #166 ) ;
#120 = DIRECTION ( 'NONE',  ( -3.491481338843133355E-15, 1.224646799147353207E-16, -1.000000000000000000 ) ) ;
#121 = COORDINATED_UNIVERSAL_TIME_OFFSET ( 1, 0, .AHEAD. ) ;
#122 = CARTESIAN_POINT ( 'NONE',  ( 5.586370142149013368E-14, -1.959434878635765131E-15, 16.00000000000000000 ) ) ;
#123 = ADVANCED_FACE ( 'NONE', ( #11 ), #150, .T. ) ;
#124 = CALENDAR_DATE ( 2021, 8, 12 ) ;
#125 = APPROVAL ( #50, 'UNSPECIFIED' ) ;
#126 = AXIS2_PLACEMENT_3D ( 'NONE', #42, #56, #91 ) ;
#127 = ORIENTED_EDGE ( 'NONE', *, *, #189, .F. ) ;
#128 = SHAPE_DEFINITION_REPRESENTATION ( #15, #48 ) ;
#129 = APPROVAL_PERSON_ORGANIZATION ( #66, #114, #92 ) ;
#130 = MANIFOLD_SOLID_BREP ( 'Corps-Déplacer/Copier1[2]', #174 ) ;
#131 = ADVANCED_FACE ( 'NONE', ( #134, #163 ), #196, .T. ) ;
#132 = DIRECTION ( 'NONE',  ( 4.275831445896957731E-31, 1.000000000000000000, 1.224646799147353207E-16 ) ) ;
#133 = COORDINATED_UNIVERSAL_TIME_OFFSET ( 1, 0, .AHEAD. ) ;
#134 = FACE_OUTER_BOUND ( 'NONE', #142, .T. ) ;
#135 = DATE_AND_TIME ( #70, #144 ) ;
#136 = DIRECTION ( 'NONE',  ( 0.0000000000000000000, 1.000000000000000000, 0.0000000000000000000 ) ) ;
#137 = AXIS2_PLACEMENT_3D ( 'NONE', #179, #167, #93 ) ;
#138 = LOCAL_TIME ( 10, 33, 30.00000000000000000, #106 ) ;
#139 = DESIGN_CONTEXT ( 'detailed design', #75, 'design' ) ;
#140 = CARTESIAN_POINT ( 'NONE',  ( 2.077431396611664409E-13, 2.499999999999990230, 59.50000000000000711 ) ) ;
#141 = LOCAL_TIME ( 10, 33, 30.00000000000000000, #121 ) ;
#142 = EDGE_LOOP ( 'NONE', ( #162 ) ) ;
#143 = VERTEX_POINT ( 'NONE', #98 ) ;
#144 = LOCAL_TIME ( 10, 33, 30.00000000000000000, #133 ) ;
#145 = EDGE_LOOP ( 'NONE', ( #175 ) ) ;
#146 = APPROVAL_STATUS ( 'not_yet_approved' ) ;
#147 = FACE_OUTER_BOUND ( 'NONE', #22, .T. ) ;
#148 = DIRECTION ( 'NONE',  ( -4.275831445896958607E-31, -1.000000000000000000, -1.224646799147353207E-16 ) ) ;
#149 = CARTESIAN_POINT ( 'NONE',  ( 5.586370142149013368E-14, -1.959434878635765131E-15, 16.00000000000000000 ) ) ;
#150 = PLANE ( 'NONE',  #154 ) ;
#151 = CC_DESIGN_APPROVAL ( #177, ( #53 ) ) ;
#152 = CARTESIAN_POINT ( 'NONE',  ( 2.094888803305880013E-13, -7.347880794884118356E-15, 60.00000000000000000 ) ) ;
#153 = CC_DESIGN_DATE_AND_TIME_ASSIGNMENT ( #60, #185, ( #164 ) ) ;
#154 = AXIS2_PLACEMENT_3D ( 'NONE', #68, #115, #9 ) ;
#155 = DATE_AND_TIME ( #32, #138 ) ;
#156 =( NAMED_UNIT ( * ) PLANE_ANGLE_UNIT ( ) SI_UNIT ( $, .RADIAN. ) );
#157 = CIRCLE ( 'NONE', #6, 2.499999999999990230 ) ;
#158 = EDGE_LOOP ( 'NONE', ( #160 ) ) ;
#159 = PERSON_AND_ORGANIZATION_ROLE ( 'classification_officer' ) ;
#160 = ORIENTED_EDGE ( 'NONE', *, *, #84, .F. ) ;
#161 = AXIS2_PLACEMENT_3D ( 'NONE', #116, #39, #148 ) ;
#162 = ORIENTED_EDGE ( 'NONE', *, *, #178, .F. ) ;
#163 = FACE_OUTER_BOUND ( 'NONE', #96, .T. ) ;
#164 = PRODUCT_DEFINITION ( 'UNKNOWN', '', #53, #139 ) ;
#165 = AXIS2_PLACEMENT_3D ( 'NONE', #57, #29, #202 ) ;
#166 = COORDINATED_UNIVERSAL_TIME_OFFSET ( 1, 0, .AHEAD. ) ;
#167 = DIRECTION ( 'NONE',  ( -3.491481338843133355E-15, 1.224646799147353207E-16, -1.000000000000000000 ) ) ;
#168 = VERTEX_POINT ( 'NONE', #30 ) ;
#169 = PERSON_AND_ORGANIZATION ( #176, #77 ) ;
#170 = FACE_OUTER_BOUND ( 'NONE', #37, .T. ) ;
#171 = APPROVAL_STATUS ( 'not_yet_approved' ) ;
#172 = CC_DESIGN_PERSON_AND_ORGANIZATION_ASSIGNMENT ( #58, #62, ( #53 ) ) ;
#173 = CARTESIAN_POINT ( 'NONE',  ( -2.137876538271898504E-31, 2.499999999999990230, -6.123121766362532060E-17 ) ) ;
#174 = CLOSED_SHELL ( 'NONE', ( #61, #131, #123 ) ) ;
#175 = ORIENTED_EDGE ( 'NONE', *, *, #178, .T. ) ;
#176 = PERSON ( 'UNSPECIFIED', 'UNSPECIFIED', 'UNSPECIFIED', ('UNSPECIFIED'), ('UNSPECIFIED'), ('UNSPECIFIED') ) ;
#177 = APPROVAL ( #171, 'UNSPECIFIED' ) ;
#178 = EDGE_CURVE ( 'NONE', #109, #109, #157, .T. ) ;
#179 = CARTESIAN_POINT ( 'NONE',  ( 2.077431396611664409E-13, -7.286648454926752359E-15, 59.50000000000000711 ) ) ;
#180 = DIRECTION ( 'NONE',  ( 4.275831445896958607E-31, 1.000000000000000000, 1.224646799147353207E-16 ) ) ;
#181 = DIRECTION ( 'NONE',  ( 0.0000000000000000000, 0.0000000000000000000, 1.000000000000000000 ) ) ;
#182 = CARTESIAN_POINT ( 'NONE',  ( 2.094888803305880013E-13, -7.347880794884118356E-15, 60.00000000000000000 ) ) ;
#183 = LOCAL_TIME ( 10, 33, 30.00000000000000000, #85 ) ;
#184 = DIRECTION ( 'NONE',  ( -4.275831445896958607E-31, -1.000000000000000000, -1.224646799147353207E-16 ) ) ;
#185 = DATE_TIME_ROLE ( 'creation_date' ) ;
#186 = APPLICATION_CONTEXT ( 'configuration controlled 3d designs of mechanical parts and assemblies' ) ;
#187 = DIRECTION ( 'NONE',  ( -3.491481338843133355E-15, 1.224646799147353207E-16, -1.000000000000000000 ) ) ;
#188 = CIRCLE ( 'NONE', #51, 2.499999999999992450 ) ;
#189 = EDGE_CURVE ( 'NONE', #143, #143, #188, .T. ) ;
#190 = CC_DESIGN_SECURITY_CLASSIFICATION ( #192, ( #53 ) ) ;
#191 = EDGE_LOOP ( 'NONE', ( #64 ) ) ;
#192 = SECURITY_CLASSIFICATION ( '', '', #38 ) ;
#193 = EDGE_LOOP ( 'NONE', ( #99 ) ) ;
#194 = DIRECTION ( 'NONE',  ( -3.491481338843133355E-15, 1.224646799147353207E-16, -1.000000000000000000 ) ) ;
#195 = CARTESIAN_POINT ( 'NONE',  ( 2.094888803305880013E-13, 1.499759782661844471E-32, 60.00000000000000000 ) ) ;
#196 = CYLINDRICAL_SURFACE ( 'NONE', #165, 2.499999999999991118 ) ;
#197 = MANIFOLD_SOLID_BREP ( 'Corps-Déplacer/Copier1[1]', #87 ) ;
#198 = APPROVAL_DATE_TIME ( #135, #177 ) ;
#199 = DIRECTION ( 'NONE',  ( 1.000000000000000000, 0.0000000000000000000, 0.0000000000000000000 ) ) ;
#200 = VERTEX_POINT ( 'NONE', #59 ) ;
#201 = CC_DESIGN_APPROVAL ( #125, ( #164 ) ) ;
#202 = DIRECTION ( 'NONE',  ( 4.275831445896957731E-31, 1.000000000000000000, 1.224646799147352961E-16 ) ) ;
#203 = PERSON_AND_ORGANIZATION ( #176, #77 ) ;
ENDSEC;
END-ISO-10303-21;
