ISO-10303-21;
HEADER;
FILE_DESCRIPTION (( 'STEP AP203' ),
    '1' );
FILE_NAME ('372660.step',
    '2021-12-08T09:33:29',
    ( '' ),
    ( '' ),
    'SwSTEP 2.0',
    'SolidWorks 2019',
    '' );
FILE_SCHEMA (( 'CONFIG_CONTROL_DESIGN' ));
ENDSEC;

DATA;
#1 = ADVANCED_FACE ( 'NONE', ( #96, #4 ), #41, .T. ) ;
#2 = EDGE_LOOP ( 'NONE', ( #72 ) ) ;
#3 = LOCAL_TIME ( 10, 33, 29.00000000000000000, #85 ) ;
#4 = FACE_BOUND ( 'NONE', #55, .T. ) ;
#5 = CIRCLE ( 'NONE', #133, 2.400000000000003020 ) ;
#6 = CARTESIAN_POINT ( 'NONE',  ( 0.0000000000000000000, 0.0000000000000000000, 0.0000000000000000000 ) ) ;
#7 = DIRECTION ( 'NONE',  ( -4.275831445896958607E-31, -1.000000000000000000, -1.224646799147353207E-16 ) ) ;
#8 = FACE_OUTER_BOUND ( 'NONE', #65, .T. ) ;
#9 = CARTESIAN_POINT ( 'NONE',  ( 4.189777606611760026E-14, -1.999999999999998224, 12.00000000000000000 ) ) ;
#10 = CARTESIAN_POINT ( 'NONE',  ( -4.275814469310566085E-31, 1.499753828076921054E-32, -1.224641936859760798E-16 ) ) ;
#11 = FACE_OUTER_BOUND ( 'NONE', #59, .T. ) ;
#12 = ADVANCED_FACE ( 'NONE', ( #112, #126 ), #34, .T. ) ;
#13 = APPROVAL_ROLE ( '' ) ;
#14 = PRODUCT_DEFINITION_FORMATION_WITH_SPECIFIED_SOURCE ( 'ANY', '', #215, .NOT_KNOWN. ) ;
#15 = LOCAL_TIME ( 10, 33, 29.00000000000000000, #17 ) ;
#16 = DATE_AND_TIME ( #36, #92 ) ;
#17 = COORDINATED_UNIVERSAL_TIME_OFFSET ( 1, 0, .AHEAD. ) ;
#18 = DESIGN_CONTEXT ( 'detailed design', #128, 'design' ) ;
#19 = APPROVAL ( #206, 'UNSPECIFIED' ) ;
#20 = DIRECTION ( 'NONE',  ( -3.491481338843133355E-15, 1.224646799147353207E-16, -1.000000000000000000 ) ) ;
#21 = DIRECTION ( 'NONE',  ( 0.0000000000000000000, 1.000000000000000000, 0.0000000000000000000 ) ) ;
#22 = VERTEX_POINT ( 'NONE', #26 ) ;
#23 = AXIS2_PLACEMENT_3D ( 'NONE', #151, #183, #98 ) ;
#24 = FACE_OUTER_BOUND ( 'NONE', #158, .T. ) ;
#25 = DIRECTION ( 'NONE',  ( 1.000000000000000000, 0.0000000000000000000, 0.0000000000000000000 ) ) ;
#26 = CARTESIAN_POINT ( 'NONE',  ( 2.793185071074506684E-13, 2.399999999999992806, 80.00000000000000000 ) ) ;
#27 = EDGE_CURVE ( 'NONE', #166, #166, #106, .T. ) ;
#28 = PLANE ( 'NONE',  #210 ) ;
#29 = FACE_OUTER_BOUND ( 'NONE', #76, .T. ) ;
#30 = CARTESIAN_POINT ( 'NONE',  ( 4.189777606611760026E-14, -1.531760773402434319E-15, 12.00000000000000000 ) ) ;
#31 = CC_DESIGN_PERSON_AND_ORGANIZATION_ASSIGNMENT ( #173, #154, ( #202 ) ) ;
#32 = MANIFOLD_SOLID_BREP ( 'Corps-Déplacer/Copier1[2]', #159 ) ;
#33 = PERSON_AND_ORGANIZATION ( #35, #110 ) ;
#34 = CONICAL_SURFACE ( 'NONE', #207, 6.999999999999998224, 0.2617993877991502405 ) ;
#35 = PERSON ( 'UNSPECIFIED', 'UNSPECIFIED', 'UNSPECIFIED', ('UNSPECIFIED'), ('UNSPECIFIED'), ('UNSPECIFIED') ) ;
#36 = CALENDAR_DATE ( 2021, 8, 12 ) ;
#37 = PERSON_AND_ORGANIZATION_ROLE ( 'creator' ) ;
#38 = ORIENTED_EDGE ( 'NONE', *, *, #40, .F. ) ;
#39 = AXIS2_PLACEMENT_3D ( 'NONE', #142, #20, #160 ) ;
#40 = EDGE_CURVE ( 'NONE', #43, #43, #216, .T. ) ;
#41 = CONICAL_SURFACE ( 'NONE', #175, 2.400000000000003020, 0.7853981633974450594 ) ;
#42 = CIRCLE ( 'NONE', #64, 1.999999999999996669 ) ;
#43 = VERTEX_POINT ( 'NONE', #147 ) ;
#44 = EDGE_LOOP ( 'NONE', ( #74 ) ) ;
#45 = DIRECTION ( 'NONE',  ( -4.275831445896958607E-31, -1.000000000000000000, -1.224646799147353207E-16 ) ) ;
#46 = EDGE_CURVE ( 'NONE', #22, #22, #5, .T. ) ;
#47 = CARTESIAN_POINT ( 'NONE',  ( 4.189777606611760026E-14, 2.249639673992779296E-32, 12.00000000000000000 ) ) ;
#48 = DATE_AND_TIME ( #50, #124 ) ;
#49 = APPLICATION_PROTOCOL_DEFINITION ( 'international standard', 'config_control_design', 1994, #128 ) ;
#50 = CALENDAR_DATE ( 2021, 8, 12 ) ;
#51 = PERSON_AND_ORGANIZATION ( #35, #110 ) ;
#52 = DATE_AND_TIME ( #121, #3 ) ;
#53 = PRODUCT_RELATED_PRODUCT_CATEGORY ( 'detail', '', ( #215 ) ) ;
#54 = PERSON_AND_ORGANIZATION_ROLE ( 'design_owner' ) ;
#55 = EDGE_LOOP ( 'NONE', ( #115 ) ) ;
#56 = ORIENTED_EDGE ( 'NONE', *, *, #140, .F. ) ;
#57 = ADVANCED_FACE ( 'NONE', ( #90, #24 ), #77, .T. ) ;
#58 = AXIS2_PLACEMENT_3D ( 'NONE', #135, #165, #148 ) ;
#59 = EDGE_LOOP ( 'NONE', ( #139 ) ) ;
#60 = DIRECTION ( 'NONE',  ( 0.0000000000000000000, -1.000000000000000000, 0.0000000000000000000 ) ) ;
#61 = PRODUCT_DEFINITION_SHAPE ( 'NONE', 'NONE',  #89 ) ;
#62 = DIRECTION ( 'NONE',  ( -3.491481338843133355E-15, 1.276467311168695266E-16, -1.000000000000000000 ) ) ;
#63 = MECHANICAL_CONTEXT ( 'NONE', #149, 'mechanical' ) ;
#64 = AXIS2_PLACEMENT_3D ( 'NONE', #30, #116, #182 ) ;
#65 = EDGE_LOOP ( 'NONE', ( #214 ) ) ;
#66 = VERTEX_POINT ( 'NONE', #200 ) ;
#67 = FACE_OUTER_BOUND ( 'NONE', #217, .T. ) ;
#68 = DIRECTION ( 'NONE',  ( -3.491481338843133355E-15, 1.224646799147353207E-16, -1.000000000000000000 ) ) ;
#69 = DIRECTION ( 'NONE',  ( 4.275831445896958607E-31, 1.000000000000000000, 1.224646799147353207E-16 ) ) ;
#70 = AXIS2_PLACEMENT_3D ( 'NONE', #47, #198, #45 ) ;
#71 = PERSON_AND_ORGANIZATION_ROLE ( 'design_supplier' ) ;
#72 = ORIENTED_EDGE ( 'NONE', *, *, #140, .T. ) ;
#73 = CC_DESIGN_PERSON_AND_ORGANIZATION_ASSIGNMENT ( #51, #71, ( #14 ) ) ;
#74 = ORIENTED_EDGE ( 'NONE', *, *, #86, .T. ) ;
#75 = ORIENTED_EDGE ( 'NONE', *, *, #137, .T. ) ;
#76 = EDGE_LOOP ( 'NONE', ( #75 ) ) ;
#77 = CYLINDRICAL_SURFACE ( 'NONE', #161, 2.999999999999997335 ) ;
#78 = CARTESIAN_POINT ( 'NONE',  ( 1.070497048173233207E-13, -3.913681203143628758E-15, 30.66025403784433223 ) ) ;
#79 =( LENGTH_UNIT ( ) NAMED_UNIT ( * ) SI_UNIT ( .MILLI., .METRE. ) );
#80 = EDGE_LOOP ( 'NONE', ( #109 ) ) ;
#81 = CARTESIAN_POINT ( 'NONE',  ( 2.772236183041447758E-13, 2.999999999999992895, 79.39999999999999147 ) ) ;
#82 = PLANE ( 'NONE',  #221 ) ;
#83 = DIRECTION ( 'NONE',  ( 3.491481338843133355E-15, -1.224646799147353207E-16, 1.000000000000000000 ) ) ;
#84 = APPROVAL_DATE_TIME ( #16, #204 ) ;
#85 = COORDINATED_UNIVERSAL_TIME_OFFSET ( 1, 0, .AHEAD. ) ;
#86 = EDGE_CURVE ( 'NONE', #94, #94, #107, .T. ) ;
#87 = COORDINATED_UNIVERSAL_TIME_OFFSET ( 1, 0, .AHEAD. ) ;
#88 =( GEOMETRIC_REPRESENTATION_CONTEXT ( 3 ) GLOBAL_UNCERTAINTY_ASSIGNED_CONTEXT ( ( #108 ) ) GLOBAL_UNIT_ASSIGNED_CONTEXT ( ( #79, #114, #127 ) ) REPRESENTATION_CONTEXT ( 'NONE', 'WORKASPACE' ) );
#89 = PRODUCT_DEFINITION ( 'UNKNOWN', '', #14, #18 ) ;
#90 = FACE_OUTER_BOUND ( 'NONE', #208, .T. ) ;
#91 = AXIS2_PLACEMENT_3D ( 'NONE', #118, #203, #220 ) ;
#92 = LOCAL_TIME ( 10, 33, 29.00000000000000000, #87 ) ;
#93 = APPROVAL_PERSON_ORGANIZATION ( #184, #19, #13 ) ;
#94 = VERTEX_POINT ( 'NONE', #9 ) ;
#95 = CC_DESIGN_DATE_AND_TIME_ASSIGNMENT ( #48, #122, ( #89 ) ) ;
#96 = FACE_OUTER_BOUND ( 'NONE', #141, .T. ) ;
#97 = FACE_OUTER_BOUND ( 'NONE', #179, .T. ) ;
#98 = DIRECTION ( 'NONE',  ( -4.456761796588770537E-31, -1.000000000000000000, -1.276467311168695266E-16 ) ) ;
#99 = LOCAL_TIME ( 10, 33, 29.00000000000000000, #120 ) ;
#100 = SECURITY_CLASSIFICATION_LEVEL ( 'unclassified' ) ;
#101 = PLANE ( 'NONE',  #58 ) ;
#102 = CC_DESIGN_PERSON_AND_ORGANIZATION_ASSIGNMENT ( #169, #54, ( #215 ) ) ;
#103 = PERSON_AND_ORGANIZATION ( #35, #110 ) ;
#104 = APPROVAL_STATUS ( 'not_yet_approved' ) ;
#105 = MANIFOLD_SOLID_BREP ( 'Corps-Déplacer/Copier1[1]', #171 ) ;
#106 = CIRCLE ( 'NONE', #39, 3.000000000000002220 ) ;
#107 = CIRCLE ( 'NONE', #91, 1.999999999999996669 ) ;
#108 = UNCERTAINTY_MEASURE_WITH_UNIT (LENGTH_MEASURE( 1.000000000000000082E-05 ), #79, 'distance_accuracy_value', 'NONE');
#109 = ORIENTED_EDGE ( 'NONE', *, *, #40, .T. ) ;
#110 = ORGANIZATION ( 'UNSPECIFIED', 'UNSPECIFIED', '' ) ;
#111 = CARTESIAN_POINT ( 'NONE',  ( 2.793185071074506684E-13, -9.797174393178826052E-15, 80.00000000000000000 ) ) ;
#112 = FACE_BOUND ( 'NONE', #2, .T. ) ;
#113 = CYLINDRICAL_SURFACE ( 'NONE', #185, 1.999999999999997780 ) ;
#114 =( NAMED_UNIT ( * ) PLANE_ANGLE_UNIT ( ) SI_UNIT ( $, .RADIAN. ) );
#115 = ORIENTED_EDGE ( 'NONE', *, *, #46, .T. ) ;
#116 = DIRECTION ( 'NONE',  ( 3.491481338843133355E-15, -1.276467311168695266E-16, 1.000000000000000000 ) ) ;
#117 = APPROVAL_DATE_TIME ( #187, #164 ) ;
#118 = CARTESIAN_POINT ( 'NONE',  ( 4.189777606611760026E-14, -1.531760773402434319E-15, 12.00000000000000000 ) ) ;
#119 = ADVANCED_FACE ( 'NONE', ( #8 ), #82, .F. ) ;
#120 = COORDINATED_UNIVERSAL_TIME_OFFSET ( 1, 0, .AHEAD. ) ;
#121 = CALENDAR_DATE ( 2021, 8, 12 ) ;
#122 = DATE_TIME_ROLE ( 'creation_date' ) ;
#123 = CIRCLE ( 'NONE', #23, 1.999999999999999112 ) ;
#124 = LOCAL_TIME ( 10, 33, 29.00000000000000000, #155 ) ;
#125 = DIRECTION ( 'NONE',  ( 0.0000000000000000000, -1.000000000000000000, 0.0000000000000000000 ) ) ;
#126 = FACE_OUTER_BOUND ( 'NONE', #80, .T. ) ;
#127 =( NAMED_UNIT ( * ) SI_UNIT ( $, .STERADIAN. ) SOLID_ANGLE_UNIT ( ) );
#128 = APPLICATION_CONTEXT ( 'configuration controlled 3d designs of mechanical parts and assemblies' ) ;
#129 = CC_DESIGN_SECURITY_CLASSIFICATION ( #202, ( #14 ) ) ;
#130 = PLANE ( 'NONE',  #70 ) ;
#131 = APPROVAL_ROLE ( '' ) ;
#132 = VERTEX_POINT ( 'NONE', #163 ) ;
#133 = AXIS2_PLACEMENT_3D ( 'NONE', #178, #195, #21 ) ;
#134 = ADVANCED_FACE ( 'NONE', ( #67 ), #130, .F. ) ;
#135 = CARTESIAN_POINT ( 'NONE',  ( 4.189777606611760026E-14, 2.249639673992779296E-32, 12.00000000000000000 ) ) ;
#136 = CALENDAR_DATE ( 2021, 8, 12 ) ;
#137 = EDGE_CURVE ( 'NONE', #132, #132, #123, .T. ) ;
#138 = PERSON_AND_ORGANIZATION_ROLE ( 'creator' ) ;
#139 = ORIENTED_EDGE ( 'NONE', *, *, #137, .F. ) ;
#140 = EDGE_CURVE ( 'NONE', #66, #66, #42, .T. ) ;
#141 = EDGE_LOOP ( 'NONE', ( #174 ) ) ;
#142 = CARTESIAN_POINT ( 'NONE',  ( 2.772236183041447758E-13, -9.723695585229984332E-15, 79.39999999999999147 ) ) ;
#143 = CARTESIAN_POINT ( 'NONE',  ( 0.0000000000000000000, 0.0000000000000000000, 0.0000000000000000000 ) ) ;
#144 = DIRECTION ( 'NONE',  ( 0.0000000000000000000, 0.0000000000000000000, 1.000000000000000000 ) ) ;
#145 = DIRECTION ( 'NONE',  ( -3.491481338843133355E-15, 1.224646799147353207E-16, -1.000000000000000000 ) ) ;
#146 = APPLICATION_PROTOCOL_DEFINITION ( 'international standard', 'config_control_design', 1994, #149 ) ;
#147 = CARTESIAN_POINT ( 'NONE',  ( 5.492816181635874941E-14, -2.999999999999999556, 15.73205080756886609 ) ) ;
#148 = DIRECTION ( 'NONE',  ( -4.275831445896958607E-31, -1.000000000000000000, -1.224646799147353207E-16 ) ) ;
#149 = APPLICATION_CONTEXT ( 'configuration controlled 3d designs of mechanical parts and assemblies' ) ;
#150 = APPROVAL_DATE_TIME ( #52, #19 ) ;
#151 = CARTESIAN_POINT ( 'NONE',  ( 8.189802190410268829E-31, -5.339015077269667903E-32, 2.345652574252015395E-16 ) ) ;
#152 = DATE_AND_TIME ( #199, #15 ) ;
#153 = AXIS2_PLACEMENT_3D ( 'NONE', #213, #62, #125 ) ;
#154 = PERSON_AND_ORGANIZATION_ROLE ( 'classification_officer' ) ;
#155 = COORDINATED_UNIVERSAL_TIME_OFFSET ( 1, 0, .AHEAD. ) ;
#156 = SHAPE_DEFINITION_REPRESENTATION ( #61, #177 ) ;
#157 = CC_DESIGN_DATE_AND_TIME_ASSIGNMENT ( #152, #168, ( #202 ) ) ;
#158 = EDGE_LOOP ( 'NONE', ( #38 ) ) ;
#159 = CLOSED_SHELL ( 'NONE', ( #172, #209, #181 ) ) ;
#160 = DIRECTION ( 'NONE',  ( 0.0000000000000000000, 1.000000000000000000, 0.0000000000000000000 ) ) ;
#161 = AXIS2_PLACEMENT_3D ( 'NONE', #143, #145, #69 ) ;
#162 = APPROVAL_PERSON_ORGANIZATION ( #33, #164, #131 ) ;
#163 = CARTESIAN_POINT ( 'NONE',  ( -7.237214027672697269E-32, -1.999999999999999112, -2.072820480853744888E-17 ) ) ;
#164 = APPROVAL ( #223, 'UNSPECIFIED' ) ;
#165 = DIRECTION ( 'NONE',  ( 3.491481338843133355E-15, -1.224646799147353207E-16, 1.000000000000000000 ) ) ;
#166 = VERTEX_POINT ( 'NONE', #81 ) ;
#167 = FACE_OUTER_BOUND ( 'NONE', #44, .T. ) ;
#168 = DATE_TIME_ROLE ( 'classification_date' ) ;
#169 = PERSON_AND_ORGANIZATION ( #35, #110 ) ;
#170 = PERSON_AND_ORGANIZATION ( #35, #110 ) ;
#171 = CLOSED_SHELL ( 'NONE', ( #57, #1, #119, #12, #134 ) ) ;
#172 = ADVANCED_FACE ( 'NONE', ( #167 ), #101, .T. ) ;
#173 = PERSON_AND_ORGANIZATION ( #35, #110 ) ;
#174 = ORIENTED_EDGE ( 'NONE', *, *, #27, .F. ) ;
#175 = AXIS2_PLACEMENT_3D ( 'NONE', #111, #193, #176 ) ;
#176 = DIRECTION ( 'NONE',  ( 0.0000000000000000000, 1.000000000000000000, 0.0000000000000000000 ) ) ;
#177 = ADVANCED_BREP_SHAPE_REPRESENTATION ( '372660', ( #105, #32, #211 ), #88 ) ;
#178 = CARTESIAN_POINT ( 'NONE',  ( 2.793185071074506684E-13, -9.797174393178826052E-15, 80.00000000000000000 ) ) ;
#179 = EDGE_LOOP ( 'NONE', ( #188 ) ) ;
#180 = ORIENTED_EDGE ( 'NONE', *, *, #27, .T. ) ;
#181 = ADVANCED_FACE ( 'NONE', ( #11 ), #28, .F. ) ;
#182 = DIRECTION ( 'NONE',  ( 0.0000000000000000000, -1.000000000000000000, 0.0000000000000000000 ) ) ;
#183 = DIRECTION ( 'NONE',  ( 3.491481338843133355E-15, -1.276467311168695266E-16, 1.000000000000000000 ) ) ;
#184 = PERSON_AND_ORGANIZATION ( #35, #110 ) ;
#185 = AXIS2_PLACEMENT_3D ( 'NONE', #197, #218, #196 ) ;
#186 = CC_DESIGN_APPROVAL ( #19, ( #202 ) ) ;
#187 = DATE_AND_TIME ( #136, #99 ) ;
#188 = ORIENTED_EDGE ( 'NONE', *, *, #86, .F. ) ;
#189 = CC_DESIGN_PERSON_AND_ORGANIZATION_ASSIGNMENT ( #205, #37, ( #89 ) ) ;
#190 = APPROVAL_PERSON_ORGANIZATION ( #170, #204, #192 ) ;
#191 = CC_DESIGN_APPROVAL ( #164, ( #14 ) ) ;
#192 = APPROVAL_ROLE ( '' ) ;
#193 = DIRECTION ( 'NONE',  ( -3.491481338843133355E-15, 1.224646799147353207E-16, -1.000000000000000000 ) ) ;
#194 = CC_DESIGN_PERSON_AND_ORGANIZATION_ASSIGNMENT ( #103, #138, ( #14 ) ) ;
#195 = DIRECTION ( 'NONE',  ( -3.491481338843133355E-15, 1.224646799147353207E-16, -1.000000000000000000 ) ) ;
#196 = DIRECTION ( 'NONE',  ( -4.456761796588770537E-31, -1.000000000000000000, -1.276467311168695266E-16 ) ) ;
#197 = CARTESIAN_POINT ( 'NONE',  ( -6.413839710158237013E-31, 0.0000000000000000000, -1.836996703606440502E-16 ) ) ;
#198 = DIRECTION ( 'NONE',  ( 3.491481338843133355E-15, -1.224646799147353207E-16, 1.000000000000000000 ) ) ;
#199 = CALENDAR_DATE ( 2021, 8, 12 ) ;
#200 = CARTESIAN_POINT ( 'NONE',  ( 4.189777606611760026E-14, -1.999999999999998224, 12.00000000000000000 ) ) ;
#201 = DIRECTION ( 'NONE',  ( 4.275831445896958607E-31, 1.000000000000000000, 1.224646799147353207E-16 ) ) ;
#202 = SECURITY_CLASSIFICATION ( '', '', #100 ) ;
#203 = DIRECTION ( 'NONE',  ( 3.491481338843133355E-15, -1.276467311168695266E-16, 1.000000000000000000 ) ) ;
#204 = APPROVAL ( #104, 'UNSPECIFIED' ) ;
#205 = PERSON_AND_ORGANIZATION ( #35, #110 ) ;
#206 = APPROVAL_STATUS ( 'not_yet_approved' ) ;
#207 = AXIS2_PLACEMENT_3D ( 'NONE', #78, #212, #60 ) ;
#208 = EDGE_LOOP ( 'NONE', ( #180 ) ) ;
#209 = ADVANCED_FACE ( 'NONE', ( #29, #97 ), #113, .T. ) ;
#210 = AXIS2_PLACEMENT_3D ( 'NONE', #10, #83, #7 ) ;
#211 = AXIS2_PLACEMENT_3D ( 'NONE', #6, #144, #25 ) ;
#212 = DIRECTION ( 'NONE',  ( 3.491481338843133355E-15, -1.276467311168695266E-16, 1.000000000000000000 ) ) ;
#213 = CARTESIAN_POINT ( 'NONE',  ( 5.492816181635874941E-14, -2.008144859350673443E-15, 15.73205080756886609 ) ) ;
#214 = ORIENTED_EDGE ( 'NONE', *, *, #46, .F. ) ;
#215 = PRODUCT ( '372660', '372660', '', ( #63 ) ) ;
#216 = CIRCLE ( 'NONE', #153, 2.999999999999997335 ) ;
#217 = EDGE_LOOP ( 'NONE', ( #56 ) ) ;
#218 = DIRECTION ( 'NONE',  ( 3.491481338843133355E-15, -1.276467311168695266E-16, 1.000000000000000000 ) ) ;
#219 = CARTESIAN_POINT ( 'NONE',  ( 2.793185071074506684E-13, 1.799711739194216266E-32, 80.00000000000000000 ) ) ;
#220 = DIRECTION ( 'NONE',  ( 0.0000000000000000000, -1.000000000000000000, 0.0000000000000000000 ) ) ;
#221 = AXIS2_PLACEMENT_3D ( 'NONE', #219, #68, #201 ) ;
#222 = CC_DESIGN_APPROVAL ( #204, ( #89 ) ) ;
#223 = APPROVAL_STATUS ( 'not_yet_approved' ) ;
ENDSEC;
END-ISO-10303-21;
