ISO-10303-21;
HEADER;
FILE_DESCRIPTION (( 'STEP AP203' ),
    '1' );
FILE_NAME ('372659.step',
    '2021-12-08T09:33:29',
    ( '' ),
    ( '' ),
    'SwSTEP 2.0',
    'SolidWorks 2019',
    '' );
FILE_SCHEMA (( 'CONFIG_CONTROL_DESIGN' ));
ENDSEC;

DATA;
#1 = CC_DESIGN_APPROVAL ( #197, ( #221 ) ) ;
#2 = VERTEX_POINT ( 'NONE', #72 ) ;
#3 = DIRECTION ( 'NONE',  ( 0.0000000000000000000, -1.000000000000000000, 0.0000000000000000000 ) ) ;
#4 = FACE_OUTER_BOUND ( 'NONE', #51, .T. ) ;
#5 = APPLICATION_CONTEXT ( 'configuration controlled 3d designs of mechanical parts and assemblies' ) ;
#6 = CARTESIAN_POINT ( 'NONE',  ( 4.189777606611760026E-14, -1.531760773402434319E-15, 12.00000000000000000 ) ) ;
#7 = AXIS2_PLACEMENT_3D ( 'NONE', #190, #109, #171 ) ;
#8 = CC_DESIGN_DATE_AND_TIME_ASSIGNMENT ( #194, #46, ( #104 ) ) ;
#9 = PLANE ( 'NONE',  #80 ) ;
#10 = COORDINATED_UNIVERSAL_TIME_OFFSET ( 1, 0, .AHEAD. ) ;
#11 = LOCAL_TIME ( 10, 33, 29.00000000000000000, #10 ) ;
#12 = APPLICATION_CONTEXT ( 'configuration controlled 3d designs of mechanical parts and assemblies' ) ;
#13 = APPROVAL_STATUS ( 'not_yet_approved' ) ;
#14 = PRODUCT_DEFINITION ( 'UNKNOWN', '', #221, #70 ) ;
#15 = PERSON_AND_ORGANIZATION_ROLE ( 'creator' ) ;
#16 = PRODUCT_RELATED_PRODUCT_CATEGORY ( 'detail', '', ( #175 ) ) ;
#17 = EDGE_LOOP ( 'NONE', ( #52 ) ) ;
#18 = EDGE_CURVE ( 'NONE', #30, #30, #162, .T. ) ;
#19 = APPROVAL_DATE_TIME ( #161, #163 ) ;
#20 = ORIENTED_EDGE ( 'NONE', *, *, #18, .T. ) ;
#21 = AXIS2_PLACEMENT_3D ( 'NONE', #44, #120, #41 ) ;
#22 = AXIS2_PLACEMENT_3D ( 'NONE', #61, #75, #119 ) ;
#23 = CC_DESIGN_DATE_AND_TIME_ASSIGNMENT ( #210, #125, ( #14 ) ) ;
#24 = DIRECTION ( 'NONE',  ( -4.275831445896958607E-31, -1.000000000000000000, -1.224646799147353207E-16 ) ) ;
#25 = CARTESIAN_POINT ( 'NONE',  ( 5.492816181635874941E-14, -2.999999999999999556, 15.73205080756886609 ) ) ;
#26 = APPROVAL_PERSON_ORGANIZATION ( #173, #197, #195 ) ;
#27 = DIRECTION ( 'NONE',  ( 3.491481338843133355E-15, -1.276467311168695266E-16, 1.000000000000000000 ) ) ;
#28 = DIRECTION ( 'NONE',  ( 3.491481338843133355E-15, -1.276467311168695266E-16, 1.000000000000000000 ) ) ;
#29 = FACE_OUTER_BOUND ( 'NONE', #83, .T. ) ;
#30 = VERTEX_POINT ( 'NONE', #92 ) ;
#31 = DATE_AND_TIME ( #140, #11 ) ;
#32 = CALENDAR_DATE ( 2021, 8, 12 ) ;
#33 = ADVANCED_FACE ( 'NONE', ( #85 ), #147, .F. ) ;
#34 = CALENDAR_DATE ( 2021, 8, 12 ) ;
#35 = CC_DESIGN_SECURITY_CLASSIFICATION ( #104, ( #221 ) ) ;
#36 = FACE_OUTER_BOUND ( 'NONE', #132, .T. ) ;
#37 = FACE_OUTER_BOUND ( 'NONE', #114, .T. ) ;
#38 = EDGE_CURVE ( 'NONE', #185, #185, #115, .T. ) ;
#39 = AXIS2_PLACEMENT_3D ( 'NONE', #144, #181, #219 ) ;
#40 = APPROVAL_PERSON_ORGANIZATION ( #112, #163, #178 ) ;
#41 = DIRECTION ( 'NONE',  ( -4.275831445896958607E-31, -1.000000000000000000, -1.224646799147353207E-16 ) ) ;
#42 = CC_DESIGN_PERSON_AND_ORGANIZATION_ASSIGNMENT ( #95, #81, ( #104 ) ) ;
#43 = DIRECTION ( 'NONE',  ( -3.491481338843133355E-15, 1.224646799147353207E-16, -1.000000000000000000 ) ) ;
#44 = CARTESIAN_POINT ( 'NONE',  ( 4.189777606611760026E-14, 2.249639673992779569E-32, 12.00000000000000000 ) ) ;
#45 = PERSON_AND_ORGANIZATION ( #145, #218 ) ;
#46 = DATE_TIME_ROLE ( 'classification_date' ) ;
#47 = ADVANCED_FACE ( 'NONE', ( #154, #103 ), #134, .T. ) ;
#48 = PERSON_AND_ORGANIZATION ( #145, #218 ) ;
#49 = AXIS2_PLACEMENT_3D ( 'NONE', #206, #204, #3 ) ;
#50 = ORIENTED_EDGE ( 'NONE', *, *, #211, .T. ) ;
#51 = EDGE_LOOP ( 'NONE', ( #20 ) ) ;
#52 = ORIENTED_EDGE ( 'NONE', *, *, #18, .F. ) ;
#53 = CC_DESIGN_PERSON_AND_ORGANIZATION_ASSIGNMENT ( #79, #216, ( #175 ) ) ;
#54 = CARTESIAN_POINT ( 'NONE',  ( -4.275916139802294913E-31, 1.499789489284924339E-32, -1.224671056445937021E-16 ) ) ;
#55 = VERTEX_POINT ( 'NONE', #102 ) ;
#56 = CARTESIAN_POINT ( 'NONE',  ( 4.189777606611760026E-14, -1.531760773402434319E-15, 12.00000000000000000 ) ) ;
#57 = DIRECTION ( 'NONE',  ( 3.491481338843133355E-15, -1.224646799147353207E-16, 1.000000000000000000 ) ) ;
#58 = CC_DESIGN_PERSON_AND_ORGANIZATION_ASSIGNMENT ( #193, #176, ( #221 ) ) ;
#59 = AXIS2_PLACEMENT_3D ( 'NONE', #107, #121, #89 ) ;
#60 = FACE_OUTER_BOUND ( 'NONE', #17, .T. ) ;
#61 = CARTESIAN_POINT ( 'NONE',  ( 0.0000000000000000000, 0.0000000000000000000, 0.0000000000000000000 ) ) ;
#62 = MANIFOLD_SOLID_BREP ( 'Corps-Déplacer/Copier1[2]', #86 ) ;
#63 = APPROVAL_DATE_TIME ( #31, #197 ) ;
#64 = PERSON_AND_ORGANIZATION_ROLE ( 'creator' ) ;
#65 = APPROVAL_ROLE ( '' ) ;
#66 =( NAMED_UNIT ( * ) SI_UNIT ( $, .STERADIAN. ) SOLID_ANGLE_UNIT ( ) );
#67 = AXIS2_PLACEMENT_3D ( 'NONE', #56, #28, #205 ) ;
#68 = ORIENTED_EDGE ( 'NONE', *, *, #84, .T. ) ;
#69 = AXIS2_PLACEMENT_3D ( 'NONE', #167, #169, #186 ) ;
#70 = DESIGN_CONTEXT ( 'detailed design', #12, 'design' ) ;
#71 = ORIENTED_EDGE ( 'NONE', *, *, #84, .F. ) ;
#72 = CARTESIAN_POINT ( 'NONE',  ( 2.094888803305880013E-13, 2.399999999999994138, 60.00000000000000000 ) ) ;
#73 = CC_DESIGN_PERSON_AND_ORGANIZATION_ASSIGNMENT ( #48, #64, ( #221 ) ) ;
#74 = FACE_OUTER_BOUND ( 'NONE', #128, .T. ) ;
#75 = DIRECTION ( 'NONE',  ( -3.491481338843133355E-15, 1.224646799147353207E-16, -1.000000000000000000 ) ) ;
#76 = CIRCLE ( 'NONE', #196, 1.999999999999996669 ) ;
#77 = PLANE ( 'NONE',  #21 ) ;
#78 = CARTESIAN_POINT ( 'NONE',  ( 4.189777606611760026E-14, -1.999999999999998224, 12.00000000000000000 ) ) ;
#79 = PERSON_AND_ORGANIZATION ( #145, #218 ) ;
#80 = AXIS2_PLACEMENT_3D ( 'NONE', #153, #170, #122 ) ;
#81 = PERSON_AND_ORGANIZATION_ROLE ( 'classification_officer' ) ;
#82 = APPROVAL_DATE_TIME ( #110, #189 ) ;
#83 = EDGE_LOOP ( 'NONE', ( #184 ) ) ;
#84 = EDGE_CURVE ( 'NONE', #55, #55, #146, .T. ) ;
#85 = FACE_OUTER_BOUND ( 'NONE', #101, .T. ) ;
#86 = CLOSED_SHELL ( 'NONE', ( #90, #47, #33 ) ) ;
#87 = VERTEX_POINT ( 'NONE', #148 ) ;
#88 = FACE_BOUND ( 'NONE', #160, .T. ) ;
#89 = DIRECTION ( 'NONE',  ( -4.456761796588770537E-31, -1.000000000000000000, -1.276467311168695266E-16 ) ) ;
#90 = ADVANCED_FACE ( 'NONE', ( #74 ), #135, .T. ) ;
#91 = FACE_BOUND ( 'NONE', #130, .T. ) ;
#92 = CARTESIAN_POINT ( 'NONE',  ( 2.073939915272820834E-13, 2.999999999999993783, 59.39999999999999147 ) ) ;
#93 = APPROVAL_STATUS ( 'not_yet_approved' ) ;
#94 = ADVANCED_FACE ( 'NONE', ( #36 ), #77, .F. ) ;
#95 = PERSON_AND_ORGANIZATION ( #145, #218 ) ;
#96 = APPROVAL_PERSON_ORGANIZATION ( #45, #189, #65 ) ;
#97 =( NAMED_UNIT ( * ) PLANE_ANGLE_UNIT ( ) SI_UNIT ( $, .RADIAN. ) );
#98 = APPROVAL_STATUS ( 'not_yet_approved' ) ;
#99 = EDGE_LOOP ( 'NONE', ( #117 ) ) ;
#100 = ORIENTED_EDGE ( 'NONE', *, *, #116, .T. ) ;
#101 = EDGE_LOOP ( 'NONE', ( #71 ) ) ;
#102 = CARTESIAN_POINT ( 'NONE',  ( -7.237214027672697269E-32, -1.999999999999999112, -2.072820480853744888E-17 ) ) ;
#103 = FACE_OUTER_BOUND ( 'NONE', #99, .T. ) ;
#104 = SECURITY_CLASSIFICATION ( '', '', #126 ) ;
#105 =( GEOMETRIC_REPRESENTATION_CONTEXT ( 3 ) GLOBAL_UNCERTAINTY_ASSIGNED_CONTEXT ( ( #152 ) ) GLOBAL_UNIT_ASSIGNED_CONTEXT ( ( #123, #97, #66 ) ) REPRESENTATION_CONTEXT ( 'NONE', 'WORKASPACE' ) );
#106 = LOCAL_TIME ( 10, 33, 29.00000000000000000, #141 ) ;
#107 = CARTESIAN_POINT ( 'NONE',  ( 8.189802190410268829E-31, -5.339015077269667903E-32, 2.345652574252015395E-16 ) ) ;
#108 = DIRECTION ( 'NONE',  ( 0.0000000000000000000, 1.000000000000000000, 0.0000000000000000000 ) ) ;
#109 = DIRECTION ( 'NONE',  ( -3.491481338843133355E-15, 1.224646799147353207E-16, -1.000000000000000000 ) ) ;
#110 = DATE_AND_TIME ( #124, #214 ) ;
#111 = DIRECTION ( 'NONE',  ( 1.000000000000000000, 0.0000000000000000000, 0.0000000000000000000 ) ) ;
#112 = PERSON_AND_ORGANIZATION ( #145, #218 ) ;
#113 = CC_DESIGN_PERSON_AND_ORGANIZATION_ASSIGNMENT ( #179, #15, ( #14 ) ) ;
#114 = EDGE_LOOP ( 'NONE', ( #202 ) ) ;
#115 = CIRCLE ( 'NONE', #67, 1.999999999999996669 ) ;
#116 = EDGE_CURVE ( 'NONE', #165, #165, #137, .T. ) ;
#117 = ORIENTED_EDGE ( 'NONE', *, *, #38, .F. ) ;
#118 = FACE_OUTER_BOUND ( 'NONE', #220, .T. ) ;
#119 = DIRECTION ( 'NONE',  ( 4.275831445896958607E-31, 1.000000000000000000, 1.224646799147353207E-16 ) ) ;
#120 = DIRECTION ( 'NONE',  ( 3.491481338843133355E-15, -1.224646799147353207E-16, 1.000000000000000000 ) ) ;
#121 = DIRECTION ( 'NONE',  ( 3.491481338843133355E-15, -1.276467311168695266E-16, 1.000000000000000000 ) ) ;
#122 = DIRECTION ( 'NONE',  ( 4.275831445896958607E-31, 1.000000000000000000, 1.224646799147353207E-16 ) ) ;
#123 =( LENGTH_UNIT ( ) NAMED_UNIT ( * ) SI_UNIT ( .MILLI., .METRE. ) );
#124 = CALENDAR_DATE ( 2021, 8, 12 ) ;
#125 = DATE_TIME_ROLE ( 'creation_date' ) ;
#126 = SECURITY_CLASSIFICATION_LEVEL ( 'unclassified' ) ;
#127 = EDGE_CURVE ( 'NONE', #87, #87, #76, .T. ) ;
#128 = EDGE_LOOP ( 'NONE', ( #133 ) ) ;
#129 = CC_DESIGN_APPROVAL ( #189, ( #14 ) ) ;
#130 = EDGE_LOOP ( 'NONE', ( #180 ) ) ;
#131 = ORIENTED_EDGE ( 'NONE', *, *, #127, .F. ) ;
#132 = EDGE_LOOP ( 'NONE', ( #131 ) ) ;
#133 = ORIENTED_EDGE ( 'NONE', *, *, #38, .T. ) ;
#134 = CYLINDRICAL_SURFACE ( 'NONE', #69, 1.999999999999997780 ) ;
#135 = PLANE ( 'NONE',  #177 ) ;
#136 = CARTESIAN_POINT ( 'NONE',  ( 1.070497048173233207E-13, -3.913681203143628758E-15, 30.66025403784433223 ) ) ;
#137 = CIRCLE ( 'NONE', #49, 2.999999999999997335 ) ;
#138 = DIRECTION ( 'NONE',  ( 3.491481338843133355E-15, -1.276467311168695266E-16, 1.000000000000000000 ) ) ;
#139 = CALENDAR_DATE ( 2021, 8, 12 ) ;
#140 = CALENDAR_DATE ( 2021, 8, 12 ) ;
#141 = COORDINATED_UNIVERSAL_TIME_OFFSET ( 1, 0, .AHEAD. ) ;
#142 = PRODUCT_DEFINITION_SHAPE ( 'NONE', 'NONE',  #14 ) ;
#143 = ADVANCED_FACE ( 'NONE', ( #4, #37 ), #209, .T. ) ;
#144 = CARTESIAN_POINT ( 'NONE',  ( 2.073939915272820834E-13, -7.274401986935278213E-15, 59.39999999999999147 ) ) ;
#145 = PERSON ( 'UNSPECIFIED', 'UNSPECIFIED', 'UNSPECIFIED', ('UNSPECIFIED'), ('UNSPECIFIED'), ('UNSPECIFIED') ) ;
#146 = CIRCLE ( 'NONE', #59, 1.999999999999999112 ) ;
#147 = PLANE ( 'NONE',  #213 ) ;
#148 = CARTESIAN_POINT ( 'NONE',  ( 4.189777606611760026E-14, -1.999999999999998224, 12.00000000000000000 ) ) ;
#149 = CIRCLE ( 'NONE', #7, 2.400000000000001688 ) ;
#150 = CARTESIAN_POINT ( 'NONE',  ( 4.189777606611760026E-14, 2.249639673992779569E-32, 12.00000000000000000 ) ) ;
#151 = DIRECTION ( 'NONE',  ( -4.275831445896958607E-31, -1.000000000000000000, -1.224646799147353207E-16 ) ) ;
#152 = UNCERTAINTY_MEASURE_WITH_UNIT (LENGTH_MEASURE( 1.000000000000000082E-05 ), #123, 'distance_accuracy_value', 'NONE');
#153 = CARTESIAN_POINT ( 'NONE',  ( 2.094888803305880013E-13, 1.799711739194219277E-32, 60.00000000000000000 ) ) ;
#154 = FACE_OUTER_BOUND ( 'NONE', #223, .T. ) ;
#155 = APPLICATION_PROTOCOL_DEFINITION ( 'international standard', 'config_control_design', 1994, #12 ) ;
#156 = AXIS2_PLACEMENT_3D ( 'NONE', #136, #27, #203 ) ;
#157 = CARTESIAN_POINT ( 'NONE',  ( 0.0000000000000000000, 0.0000000000000000000, 0.0000000000000000000 ) ) ;
#158 = COORDINATED_UNIVERSAL_TIME_OFFSET ( 1, 0, .AHEAD. ) ;
#159 = COORDINATED_UNIVERSAL_TIME_OFFSET ( 1, 0, .AHEAD. ) ;
#160 = EDGE_LOOP ( 'NONE', ( #50 ) ) ;
#161 = DATE_AND_TIME ( #34, #217 ) ;
#162 = CIRCLE ( 'NONE', #39, 3.000000000000001332 ) ;
#163 = APPROVAL ( #98, 'UNSPECIFIED' ) ;
#164 = DIRECTION ( 'NONE',  ( 3.491481338843133355E-15, -1.224646799147353207E-16, 1.000000000000000000 ) ) ;
#165 = VERTEX_POINT ( 'NONE', #25 ) ;
#166 = ADVANCED_FACE ( 'NONE', ( #91, #118 ), #207, .T. ) ;
#167 = CARTESIAN_POINT ( 'NONE',  ( -6.413839710158237013E-31, 0.0000000000000000000, -1.836996703606440502E-16 ) ) ;
#168 = CONICAL_SURFACE ( 'NONE', #200, 2.400000000000001688, 0.7853981633974453924 ) ;
#169 = DIRECTION ( 'NONE',  ( 3.491481338843133355E-15, -1.276467311168695266E-16, 1.000000000000000000 ) ) ;
#170 = DIRECTION ( 'NONE',  ( -3.491481338843133355E-15, 1.224646799147353207E-16, -1.000000000000000000 ) ) ;
#171 = DIRECTION ( 'NONE',  ( 0.0000000000000000000, 1.000000000000000000, 0.0000000000000000000 ) ) ;
#172 = DIRECTION ( 'NONE',  ( 0.0000000000000000000, 0.0000000000000000000, 1.000000000000000000 ) ) ;
#173 = PERSON_AND_ORGANIZATION ( #145, #218 ) ;
#174 = ADVANCED_FACE ( 'NONE', ( #60, #88 ), #168, .T. ) ;
#175 = PRODUCT ( '372659', '372659', '', ( #212 ) ) ;
#176 = PERSON_AND_ORGANIZATION_ROLE ( 'design_supplier' ) ;
#177 = AXIS2_PLACEMENT_3D ( 'NONE', #150, #57, #151 ) ;
#178 = APPROVAL_ROLE ( '' ) ;
#179 = PERSON_AND_ORGANIZATION ( #145, #218 ) ;
#180 = ORIENTED_EDGE ( 'NONE', *, *, #127, .T. ) ;
#181 = DIRECTION ( 'NONE',  ( -3.491481338843133355E-15, 1.224646799147353207E-16, -1.000000000000000000 ) ) ;
#182 = CC_DESIGN_APPROVAL ( #163, ( #104 ) ) ;
#183 = AXIS2_PLACEMENT_3D ( 'NONE', #157, #172, #111 ) ;
#184 = ORIENTED_EDGE ( 'NONE', *, *, #211, .F. ) ;
#185 = VERTEX_POINT ( 'NONE', #78 ) ;
#186 = DIRECTION ( 'NONE',  ( -4.456761796588770537E-31, -1.000000000000000000, -1.276467311168695266E-16 ) ) ;
#187 = DIRECTION ( 'NONE',  ( 0.0000000000000000000, -1.000000000000000000, 0.0000000000000000000 ) ) ;
#188 = CARTESIAN_POINT ( 'NONE',  ( 2.094888803305880013E-13, -7.347880794884118356E-15, 60.00000000000000000 ) ) ;
#189 = APPROVAL ( #13, 'UNSPECIFIED' ) ;
#190 = CARTESIAN_POINT ( 'NONE',  ( 2.094888803305880013E-13, -7.347880794884118356E-15, 60.00000000000000000 ) ) ;
#191 = ADVANCED_BREP_SHAPE_REPRESENTATION ( '372659', ( #201, #62, #183 ), #105 ) ;
#192 = APPLICATION_PROTOCOL_DEFINITION ( 'international standard', 'config_control_design', 1994, #5 ) ;
#193 = PERSON_AND_ORGANIZATION ( #145, #218 ) ;
#194 = DATE_AND_TIME ( #32, #106 ) ;
#195 = APPROVAL_ROLE ( '' ) ;
#196 = AXIS2_PLACEMENT_3D ( 'NONE', #6, #138, #187 ) ;
#197 = APPROVAL ( #93, 'UNSPECIFIED' ) ;
#198 = SHAPE_DEFINITION_REPRESENTATION ( #142, #191 ) ;
#199 = CLOSED_SHELL ( 'NONE', ( #143, #174, #208, #166, #94 ) ) ;
#200 = AXIS2_PLACEMENT_3D ( 'NONE', #188, #43, #108 ) ;
#201 = MANIFOLD_SOLID_BREP ( 'Corps-Déplacer/Copier1[1]', #199 ) ;
#202 = ORIENTED_EDGE ( 'NONE', *, *, #116, .F. ) ;
#203 = DIRECTION ( 'NONE',  ( 0.0000000000000000000, -1.000000000000000000, 0.0000000000000000000 ) ) ;
#204 = DIRECTION ( 'NONE',  ( -3.491481338843133355E-15, 1.276467311168695266E-16, -1.000000000000000000 ) ) ;
#205 = DIRECTION ( 'NONE',  ( 0.0000000000000000000, -1.000000000000000000, 0.0000000000000000000 ) ) ;
#206 = CARTESIAN_POINT ( 'NONE',  ( 5.492816181635874941E-14, -2.008144859350673443E-15, 15.73205080756886609 ) ) ;
#207 = CONICAL_SURFACE ( 'NONE', #156, 6.999999999999998224, 0.2617993877991502405 ) ;
#208 = ADVANCED_FACE ( 'NONE', ( #29 ), #9, .F. ) ;
#209 = CYLINDRICAL_SURFACE ( 'NONE', #22, 2.999999999999997335 ) ;
#210 = DATE_AND_TIME ( #139, #222 ) ;
#211 = EDGE_CURVE ( 'NONE', #2, #2, #149, .T. ) ;
#212 = MECHANICAL_CONTEXT ( 'NONE', #5, 'mechanical' ) ;
#213 = AXIS2_PLACEMENT_3D ( 'NONE', #54, #164, #24 ) ;
#214 = LOCAL_TIME ( 10, 33, 29.00000000000000000, #159 ) ;
#215 = COORDINATED_UNIVERSAL_TIME_OFFSET ( 1, 0, .AHEAD. ) ;
#216 = PERSON_AND_ORGANIZATION_ROLE ( 'design_owner' ) ;
#217 = LOCAL_TIME ( 10, 33, 29.00000000000000000, #158 ) ;
#218 = ORGANIZATION ( 'UNSPECIFIED', 'UNSPECIFIED', '' ) ;
#219 = DIRECTION ( 'NONE',  ( 0.0000000000000000000, 1.000000000000000000, 0.0000000000000000000 ) ) ;
#220 = EDGE_LOOP ( 'NONE', ( #100 ) ) ;
#221 = PRODUCT_DEFINITION_FORMATION_WITH_SPECIFIED_SOURCE ( 'ANY', '', #175, .NOT_KNOWN. ) ;
#222 = LOCAL_TIME ( 10, 33, 29.00000000000000000, #215 ) ;
#223 = EDGE_LOOP ( 'NONE', ( #68 ) ) ;
ENDSEC;
END-ISO-10303-21;
