ISO-10303-21;
HEADER;
FILE_DESCRIPTION (( 'STEP AP203' ),
    '1' );
FILE_NAME ('372658.step',
    '2021-12-08T09:33:28',
    ( '' ),
    ( '' ),
    'SwSTEP 2.0',
    'SolidWorks 2019',
    '' );
FILE_SCHEMA (( 'CONFIG_CONTROL_DESIGN' ));
ENDSEC;

DATA;
#1 = ADVANCED_FACE ( 'NONE', ( #71, #121 ), #88, .T. ) ;
#2 = CARTESIAN_POINT ( 'NONE',  ( 1.745740669421566678E-13, 2.399999999999991473, 50.00000000000000000 ) ) ;
#3 = DIRECTION ( 'NONE',  ( -3.491481338843133355E-15, 1.224646799147353207E-16, -1.000000000000000000 ) ) ;
#4 = DIRECTION ( 'NONE',  ( -4.275831445896958607E-31, -1.000000000000000000, -1.224646799147353207E-16 ) ) ;
#5 = CARTESIAN_POINT ( 'NONE',  ( 0.0000000000000000000, 0.0000000000000000000, 0.0000000000000000000 ) ) ;
#6 = LOCAL_TIME ( 10, 33, 28.00000000000000000, #47 ) ;
#7 = ADVANCED_FACE ( 'NONE', ( #209, #128 ), #158, .T. ) ;
#8 = DIRECTION ( 'NONE',  ( -4.275831445896958607E-31, -1.000000000000000000, -1.224646799147353207E-16 ) ) ;
#9 = APPROVAL_ROLE ( '' ) ;
#10 = CARTESIAN_POINT ( 'NONE',  ( 4.189777606611760026E-14, -1.999999999999998224, 12.00000000000000000 ) ) ;
#11 = APPLICATION_CONTEXT ( 'configuration controlled 3d designs of mechanical parts and assemblies' ) ;
#12 =( NAMED_UNIT ( * ) SI_UNIT ( $, .STERADIAN. ) SOLID_ANGLE_UNIT ( ) );
#13 = DATE_AND_TIME ( #150, #219 ) ;
#14 = APPROVAL_DATE_TIME ( #196, #17 ) ;
#15 = APPROVAL_STATUS ( 'not_yet_approved' ) ;
#16 = EDGE_LOOP ( 'NONE', ( #104 ) ) ;
#17 = APPROVAL ( #199, 'UNSPECIFIED' ) ;
#18 = ORIENTED_EDGE ( 'NONE', *, *, #208, .F. ) ;
#19 = CLOSED_SHELL ( 'NONE', ( #7, #91, #35, #192, #185 ) ) ;
#20 = APPROVAL_PERSON_ORGANIZATION ( #182, #144, #149 ) ;
#21 = PRODUCT_DEFINITION_SHAPE ( 'NONE', 'NONE',  #102 ) ;
#22 = EDGE_LOOP ( 'NONE', ( #54 ) ) ;
#23 = DIRECTION ( 'NONE',  ( 3.491481338843133355E-15, -1.276467311168695266E-16, 1.000000000000000000 ) ) ;
#24 = CARTESIAN_POINT ( 'NONE',  ( 1.745740669421566678E-13, -6.123233995736766085E-15, 50.00000000000000000 ) ) ;
#25 = FACE_OUTER_BOUND ( 'NONE', #153, .T. ) ;
#26 = UNCERTAINTY_MEASURE_WITH_UNIT (LENGTH_MEASURE( 1.000000000000000082E-05 ), #115, 'distance_accuracy_value', 'NONE');
#27 = EDGE_CURVE ( 'NONE', #58, #58, #172, .T. ) ;
#28 = DIRECTION ( 'NONE',  ( 3.491481338843133355E-15, -1.276467311168695266E-16, 1.000000000000000000 ) ) ;
#29 = CARTESIAN_POINT ( 'NONE',  ( 1.745740669421566678E-13, -6.123233995736766085E-15, 50.00000000000000000 ) ) ;
#30 = VERTEX_POINT ( 'NONE', #46 ) ;
#31 = PERSON_AND_ORGANIZATION_ROLE ( 'design_owner' ) ;
#32 = ADVANCED_FACE ( 'NONE', ( #111 ), #124, .F. ) ;
#33 = CC_DESIGN_SECURITY_CLASSIFICATION ( #73, ( #108 ) ) ;
#34 = DATE_AND_TIME ( #114, #6 ) ;
#35 = ADVANCED_FACE ( 'NONE', ( #179 ), #79, .F. ) ;
#36 = SHAPE_DEFINITION_REPRESENTATION ( #21, #122 ) ;
#37 = PLANE ( 'NONE',  #118 ) ;
#38 = FACE_BOUND ( 'NONE', #50, .T. ) ;
#39 = AXIS2_PLACEMENT_3D ( 'NONE', #163, #81, #44 ) ;
#40 = DIRECTION ( 'NONE',  ( 3.491481338843133355E-15, -1.224646799147353207E-16, 1.000000000000000000 ) ) ;
#41 = APPROVAL ( #15, 'UNSPECIFIED' ) ;
#42 = DIRECTION ( 'NONE',  ( 3.491481338843133355E-15, -1.224646799147353207E-16, 1.000000000000000000 ) ) ;
#43 = PERSON ( 'UNSPECIFIED', 'UNSPECIFIED', 'UNSPECIFIED', ('UNSPECIFIED'), ('UNSPECIFIED'), ('UNSPECIFIED') ) ;
#44 = DIRECTION ( 'NONE',  ( 0.0000000000000000000, -1.000000000000000000, 0.0000000000000000000 ) ) ;
#45 = CIRCLE ( 'NONE', #126, 2.999999999999997335 ) ;
#46 = CARTESIAN_POINT ( 'NONE',  ( 4.189777606611760026E-14, -1.999999999999998224, 12.00000000000000000 ) ) ;
#47 = COORDINATED_UNIVERSAL_TIME_OFFSET ( 1, 0, .AHEAD. ) ;
#48 = CIRCLE ( 'NONE', #106, 1.999999999999996669 ) ;
#49 = APPROVAL_DATE_TIME ( #173, #41 ) ;
#50 = EDGE_LOOP ( 'NONE', ( #221 ) ) ;
#51 = EDGE_CURVE ( 'NONE', #90, #90, #45, .T. ) ;
#52 = AXIS2_PLACEMENT_3D ( 'NONE', #24, #195, #62 ) ;
#53 = COORDINATED_UNIVERSAL_TIME_OFFSET ( 1, 0, .AHEAD. ) ;
#54 = ORIENTED_EDGE ( 'NONE', *, *, #51, .T. ) ;
#55 = APPLICATION_CONTEXT ( 'configuration controlled 3d designs of mechanical parts and assemblies' ) ;
#56 = EDGE_LOOP ( 'NONE', ( #187 ) ) ;
#57 = CARTESIAN_POINT ( 'NONE',  ( 1.724791781388508004E-13, -6.049755187787925154E-15, 49.39999999999999858 ) ) ;
#58 = VERTEX_POINT ( 'NONE', #175 ) ;
#59 = DIRECTION ( 'NONE',  ( -4.456761796588770537E-31, -1.000000000000000000, -1.276467311168695266E-16 ) ) ;
#60 = CC_DESIGN_PERSON_AND_ORGANIZATION_ASSIGNMENT ( #99, #31, ( #120 ) ) ;
#61 = CIRCLE ( 'NONE', #183, 1.999999999999999112 ) ;
#62 = DIRECTION ( 'NONE',  ( 0.0000000000000000000, 1.000000000000000000, 0.0000000000000000000 ) ) ;
#63 = CARTESIAN_POINT ( 'NONE',  ( 4.189777606611760026E-14, -1.531760773402434319E-15, 12.00000000000000000 ) ) ;
#64 = CLOSED_SHELL ( 'NONE', ( #77, #1, #32 ) ) ;
#65 = APPLICATION_PROTOCOL_DEFINITION ( 'international standard', 'config_control_design', 1994, #55 ) ;
#66 = AXIS2_PLACEMENT_3D ( 'NONE', #207, #157, #123 ) ;
#67 = COORDINATED_UNIVERSAL_TIME_OFFSET ( 1, 0, .AHEAD. ) ;
#68 = APPLICATION_PROTOCOL_DEFINITION ( 'international standard', 'config_control_design', 1994, #11 ) ;
#69 = CIRCLE ( 'NONE', #66, 1.999999999999996669 ) ;
#70 = APPROVAL_PERSON_ORGANIZATION ( #137, #41, #202 ) ;
#71 = FACE_OUTER_BOUND ( 'NONE', #138, .T. ) ;
#72 = AXIS2_PLACEMENT_3D ( 'NONE', #29, #160, #193 ) ;
#73 = SECURITY_CLASSIFICATION ( '', '', #147 ) ;
#74 = ORIENTED_EDGE ( 'NONE', *, *, #51, .F. ) ;
#75 = ORIENTED_EDGE ( 'NONE', *, *, #204, .T. ) ;
#76 = CARTESIAN_POINT ( 'NONE',  ( -6.413839710158237013E-31, 0.0000000000000000000, -1.836996703606440502E-16 ) ) ;
#77 = ADVANCED_FACE ( 'NONE', ( #190 ), #37, .T. ) ;
#78 = DIRECTION ( 'NONE',  ( -4.456761796588770537E-31, -1.000000000000000000, -1.276467311168695266E-16 ) ) ;
#79 = PLANE ( 'NONE',  #215 ) ;
#80 = CONICAL_SURFACE ( 'NONE', #200, 6.999999999999998224, 0.2617993877991502405 ) ;
#81 = DIRECTION ( 'NONE',  ( -3.491481338843133355E-15, 1.276467311168695266E-16, -1.000000000000000000 ) ) ;
#82 = DIRECTION ( 'NONE',  ( 3.491481338843133355E-15, -1.276467311168695266E-16, 1.000000000000000000 ) ) ;
#83 = PERSON_AND_ORGANIZATION ( #43, #84 ) ;
#84 = ORGANIZATION ( 'UNSPECIFIED', 'UNSPECIFIED', '' ) ;
#85 = APPROVAL_STATUS ( 'not_yet_approved' ) ;
#86 = ORIENTED_EDGE ( 'NONE', *, *, #139, .T. ) ;
#87 = ORIENTED_EDGE ( 'NONE', *, *, #136, .F. ) ;
#88 = CYLINDRICAL_SURFACE ( 'NONE', #206, 1.999999999999997780 ) ;
#89 = AXIS2_PLACEMENT_3D ( 'NONE', #95, #42, #8 ) ;
#90 = VERTEX_POINT ( 'NONE', #155 ) ;
#91 = ADVANCED_FACE ( 'NONE', ( #211, #38 ), #148, .T. ) ;
#92 = PLANE ( 'NONE',  #89 ) ;
#93 = FACE_OUTER_BOUND ( 'NONE', #205, .T. ) ;
#94 = DIRECTION ( 'NONE',  ( 0.0000000000000000000, -1.000000000000000000, 0.0000000000000000000 ) ) ;
#95 = CARTESIAN_POINT ( 'NONE',  ( 4.189777606611760026E-14, 2.249639673992779296E-32, 12.00000000000000000 ) ) ;
#96 = CC_DESIGN_DATE_AND_TIME_ASSIGNMENT ( #34, #170, ( #73 ) ) ;
#97 =( NAMED_UNIT ( * ) PLANE_ANGLE_UNIT ( ) SI_UNIT ( $, .RADIAN. ) );
#98 = MANIFOLD_SOLID_BREP ( 'Corps-Déplacer/Copier1[1]', #19 ) ;
#99 = PERSON_AND_ORGANIZATION ( #43, #84 ) ;
#100 = DATE_AND_TIME ( #181, #203 ) ;
#101 = CALENDAR_DATE ( 2021, 8, 12 ) ;
#102 = PRODUCT_DEFINITION ( 'UNKNOWN', '', #108, #159 ) ;
#103 = EDGE_LOOP ( 'NONE', ( #75 ) ) ;
#104 = ORIENTED_EDGE ( 'NONE', *, *, #204, .F. ) ;
#105 = PRODUCT_RELATED_PRODUCT_CATEGORY ( 'detail', '', ( #120 ) ) ;
#106 = AXIS2_PLACEMENT_3D ( 'NONE', #63, #82, #142 ) ;
#107 = DIRECTION ( 'NONE',  ( 3.491481338843133355E-15, -1.276467311168695266E-16, 1.000000000000000000 ) ) ;
#108 = PRODUCT_DEFINITION_FORMATION_WITH_SPECIFIED_SOURCE ( 'ANY', '', #120, .NOT_KNOWN. ) ;
#109 = DIRECTION ( 'NONE',  ( 0.0000000000000000000, 1.000000000000000000, 0.0000000000000000000 ) ) ;
#110 = DIRECTION ( 'NONE',  ( -3.491481338843133355E-15, 1.224646799147353207E-16, -1.000000000000000000 ) ) ;
#111 = FACE_OUTER_BOUND ( 'NONE', #189, .T. ) ;
#112 = AXIS2_PLACEMENT_3D ( 'NONE', #141, #40, #4 ) ;
#113 = VERTEX_POINT ( 'NONE', #10 ) ;
#114 = CALENDAR_DATE ( 2021, 8, 12 ) ;
#115 =( LENGTH_UNIT ( ) NAMED_UNIT ( * ) SI_UNIT ( .MILLI., .METRE. ) );
#116 = DIRECTION ( 'NONE',  ( 1.000000000000000000, 0.0000000000000000000, 0.0000000000000000000 ) ) ;
#117 = ORIENTED_EDGE ( 'NONE', *, *, #139, .F. ) ;
#118 = AXIS2_PLACEMENT_3D ( 'NONE', #180, #127, #178 ) ;
#119 = CALENDAR_DATE ( 2021, 8, 12 ) ;
#120 = PRODUCT ( '372658', '372658', '', ( #169 ) ) ;
#121 = FACE_OUTER_BOUND ( 'NONE', #16, .T. ) ;
#122 = ADVANCED_BREP_SHAPE_REPRESENTATION ( '372658', ( #98, #171, #156 ), #177 ) ;
#123 = DIRECTION ( 'NONE',  ( 0.0000000000000000000, -1.000000000000000000, 0.0000000000000000000 ) ) ;
#124 = PLANE ( 'NONE',  #112 ) ;
#125 = CARTESIAN_POINT ( 'NONE',  ( 8.189802190410268829E-31, -5.339015077269667903E-32, 2.345652574252015395E-16 ) ) ;
#126 = AXIS2_PLACEMENT_3D ( 'NONE', #57, #3, #109 ) ;
#127 = DIRECTION ( 'NONE',  ( 3.491481338843133355E-15, -1.224646799147353207E-16, 1.000000000000000000 ) ) ;
#128 = FACE_OUTER_BOUND ( 'NONE', #56, .T. ) ;
#129 = PERSON_AND_ORGANIZATION_ROLE ( 'design_supplier' ) ;
#130 = DIRECTION ( 'NONE',  ( 0.0000000000000000000, 0.0000000000000000000, 1.000000000000000000 ) ) ;
#131 = CARTESIAN_POINT ( 'NONE',  ( 0.0000000000000000000, 0.0000000000000000000, 0.0000000000000000000 ) ) ;
#132 = CC_DESIGN_APPROVAL ( #41, ( #73 ) ) ;
#133 = PERSON_AND_ORGANIZATION ( #43, #84 ) ;
#134 = CC_DESIGN_PERSON_AND_ORGANIZATION_ASSIGNMENT ( #214, #197, ( #73 ) ) ;
#135 = LOCAL_TIME ( 10, 33, 28.00000000000000000, #217 ) ;
#136 = EDGE_CURVE ( 'NONE', #176, #176, #222, .T. ) ;
#137 = PERSON_AND_ORGANIZATION ( #43, #84 ) ;
#138 = EDGE_LOOP ( 'NONE', ( #86 ) ) ;
#139 = EDGE_CURVE ( 'NONE', #165, #165, #61, .T. ) ;
#140 = EDGE_LOOP ( 'NONE', ( #87 ) ) ;
#141 = CARTESIAN_POINT ( 'NONE',  ( -4.275870630573520576E-31, 1.499773526796243858E-32, -1.224658022084771305E-16 ) ) ;
#142 = DIRECTION ( 'NONE',  ( 0.0000000000000000000, -1.000000000000000000, 0.0000000000000000000 ) ) ;
#143 = CARTESIAN_POINT ( 'NONE',  ( 1.745740669421566678E-13, 1.799711739194218455E-32, 50.00000000000000000 ) ) ;
#144 = APPROVAL ( #85, 'UNSPECIFIED' ) ;
#145 = CARTESIAN_POINT ( 'NONE',  ( 1.070497048173233207E-13, -3.913681203143628758E-15, 30.66025403784433223 ) ) ;
#146 = PERSON_AND_ORGANIZATION_ROLE ( 'creator' ) ;
#147 = SECURITY_CLASSIFICATION_LEVEL ( 'unclassified' ) ;
#148 = CONICAL_SURFACE ( 'NONE', #52, 2.399999999999997691, 0.7853981633974453924 ) ;
#149 = APPROVAL_ROLE ( '' ) ;
#150 = CALENDAR_DATE ( 2021, 8, 12 ) ;
#151 = APPROVAL_DATE_TIME ( #100, #144 ) ;
#152 = CC_DESIGN_PERSON_AND_ORGANIZATION_ASSIGNMENT ( #218, #167, ( #102 ) ) ;
#153 = EDGE_LOOP ( 'NONE', ( #18 ) ) ;
#154 = ORIENTED_EDGE ( 'NONE', *, *, #208, .T. ) ;
#155 = CARTESIAN_POINT ( 'NONE',  ( 1.724791781388508004E-13, 2.999999999999991562, 49.39999999999999858 ) ) ;
#156 = AXIS2_PLACEMENT_3D ( 'NONE', #131, #130, #116 ) ;
#157 = DIRECTION ( 'NONE',  ( 3.491481338843133355E-15, -1.276467311168695266E-16, 1.000000000000000000 ) ) ;
#158 = CYLINDRICAL_SURFACE ( 'NONE', #161, 2.999999999999994671 ) ;
#159 = DESIGN_CONTEXT ( 'detailed design', #11, 'design' ) ;
#160 = DIRECTION ( 'NONE',  ( -3.491481338843133355E-15, 1.224646799147353207E-16, -1.000000000000000000 ) ) ;
#161 = AXIS2_PLACEMENT_3D ( 'NONE', #5, #110, #210 ) ;
#162 = CC_DESIGN_APPROVAL ( #144, ( #102 ) ) ;
#163 = CARTESIAN_POINT ( 'NONE',  ( 5.492816181635871154E-14, -2.008144859350672260E-15, 15.73205080756885721 ) ) ;
#164 = DATE_TIME_ROLE ( 'creation_date' ) ;
#165 = VERTEX_POINT ( 'NONE', #184 ) ;
#166 = CC_DESIGN_APPROVAL ( #17, ( #108 ) ) ;
#167 = PERSON_AND_ORGANIZATION_ROLE ( 'creator' ) ;
#168 = CC_DESIGN_DATE_AND_TIME_ASSIGNMENT ( #13, #164, ( #102 ) ) ;
#169 = MECHANICAL_CONTEXT ( 'NONE', #55, 'mechanical' ) ;
#170 = DATE_TIME_ROLE ( 'classification_date' ) ;
#171 = MANIFOLD_SOLID_BREP ( 'Corps-Déplacer/Copier1[2]', #64 ) ;
#172 = CIRCLE ( 'NONE', #39, 2.999999999999994671 ) ;
#173 = DATE_AND_TIME ( #119, #188 ) ;
#174 = CC_DESIGN_PERSON_AND_ORGANIZATION_ASSIGNMENT ( #213, #129, ( #108 ) ) ;
#175 = CARTESIAN_POINT ( 'NONE',  ( 5.492816181635871154E-14, -2.999999999999996891, 15.73205080756885721 ) ) ;
#176 = VERTEX_POINT ( 'NONE', #2 ) ;
#177 =( GEOMETRIC_REPRESENTATION_CONTEXT ( 3 ) GLOBAL_UNCERTAINTY_ASSIGNED_CONTEXT ( ( #26 ) ) GLOBAL_UNIT_ASSIGNED_CONTEXT ( ( #115, #97, #12 ) ) REPRESENTATION_CONTEXT ( 'NONE', 'WORKASPACE' ) );
#178 = DIRECTION ( 'NONE',  ( -4.275831445896958607E-31, -1.000000000000000000, -1.224646799147353207E-16 ) ) ;
#179 = FACE_OUTER_BOUND ( 'NONE', #140, .T. ) ;
#180 = CARTESIAN_POINT ( 'NONE',  ( 4.189777606611760026E-14, 2.249639673992779296E-32, 12.00000000000000000 ) ) ;
#181 = CALENDAR_DATE ( 2021, 8, 12 ) ;
#182 = PERSON_AND_ORGANIZATION ( #43, #84 ) ;
#183 = AXIS2_PLACEMENT_3D ( 'NONE', #125, #23, #78 ) ;
#184 = CARTESIAN_POINT ( 'NONE',  ( -7.237214027672697269E-32, -1.999999999999999112, -2.072820480853744888E-17 ) ) ;
#185 = ADVANCED_FACE ( 'NONE', ( #25 ), #92, .F. ) ;
#186 = EDGE_LOOP ( 'NONE', ( #74 ) ) ;
#187 = ORIENTED_EDGE ( 'NONE', *, *, #27, .F. ) ;
#188 = LOCAL_TIME ( 10, 33, 28.00000000000000000, #53 ) ;
#189 = EDGE_LOOP ( 'NONE', ( #117 ) ) ;
#190 = FACE_OUTER_BOUND ( 'NONE', #103, .T. ) ;
#191 = DIRECTION ( 'NONE',  ( 4.275831445896958607E-31, 1.000000000000000000, 1.224646799147353207E-16 ) ) ;
#192 = ADVANCED_FACE ( 'NONE', ( #212, #93 ), #80, .T. ) ;
#193 = DIRECTION ( 'NONE',  ( 0.0000000000000000000, 1.000000000000000000, 0.0000000000000000000 ) ) ;
#194 = DIRECTION ( 'NONE',  ( -3.491481338843133355E-15, 1.224646799147353207E-16, -1.000000000000000000 ) ) ;
#195 = DIRECTION ( 'NONE',  ( -3.491481338843133355E-15, 1.224646799147353207E-16, -1.000000000000000000 ) ) ;
#196 = DATE_AND_TIME ( #101, #135 ) ;
#197 = PERSON_AND_ORGANIZATION_ROLE ( 'classification_officer' ) ;
#198 = CC_DESIGN_PERSON_AND_ORGANIZATION_ASSIGNMENT ( #83, #146, ( #108 ) ) ;
#199 = APPROVAL_STATUS ( 'not_yet_approved' ) ;
#200 = AXIS2_PLACEMENT_3D ( 'NONE', #145, #28, #94 ) ;
#201 = COORDINATED_UNIVERSAL_TIME_OFFSET ( 1, 0, .AHEAD. ) ;
#202 = APPROVAL_ROLE ( '' ) ;
#203 = LOCAL_TIME ( 10, 33, 28.00000000000000000, #67 ) ;
#204 = EDGE_CURVE ( 'NONE', #113, #113, #48, .T. ) ;
#205 = EDGE_LOOP ( 'NONE', ( #223 ) ) ;
#206 = AXIS2_PLACEMENT_3D ( 'NONE', #76, #107, #59 ) ;
#207 = CARTESIAN_POINT ( 'NONE',  ( 4.189777606611760026E-14, -1.531760773402434319E-15, 12.00000000000000000 ) ) ;
#208 = EDGE_CURVE ( 'NONE', #30, #30, #69, .T. ) ;
#209 = FACE_OUTER_BOUND ( 'NONE', #22, .T. ) ;
#210 = DIRECTION ( 'NONE',  ( 4.275831445896959482E-31, 1.000000000000000000, 1.224646799147353207E-16 ) ) ;
#211 = FACE_OUTER_BOUND ( 'NONE', #186, .T. ) ;
#212 = FACE_BOUND ( 'NONE', #220, .T. ) ;
#213 = PERSON_AND_ORGANIZATION ( #43, #84 ) ;
#214 = PERSON_AND_ORGANIZATION ( #43, #84 ) ;
#215 = AXIS2_PLACEMENT_3D ( 'NONE', #143, #194, #191 ) ;
#216 = APPROVAL_PERSON_ORGANIZATION ( #133, #17, #9 ) ;
#217 = COORDINATED_UNIVERSAL_TIME_OFFSET ( 1, 0, .AHEAD. ) ;
#218 = PERSON_AND_ORGANIZATION ( #43, #84 ) ;
#219 = LOCAL_TIME ( 10, 33, 28.00000000000000000, #201 ) ;
#220 = EDGE_LOOP ( 'NONE', ( #154 ) ) ;
#221 = ORIENTED_EDGE ( 'NONE', *, *, #136, .T. ) ;
#222 = CIRCLE ( 'NONE', #72, 2.399999999999997691 ) ;
#223 = ORIENTED_EDGE ( 'NONE', *, *, #27, .T. ) ;
ENDSEC;
END-ISO-10303-21;
