ISO-10303-21;
HEADER;
FILE_DESCRIPTION (( 'STEP AP203' ),
    '1' );
FILE_NAME ('372657.step',
    '2021-12-08T09:33:28',
    ( '' ),
    ( '' ),
    'SwSTEP 2.0',
    'SolidWorks 2019',
    '' );
FILE_SCHEMA (( 'CONFIG_CONTROL_DESIGN' ));
ENDSEC;

DATA;
#1 = ADVANCED_FACE ( 'NONE', ( #61 ), #58, .F. ) ;
#2 = DIRECTION ( 'NONE',  ( 0.0000000000000000000, 1.000000000000000000, 0.0000000000000000000 ) ) ;
#3 = VERTEX_POINT ( 'NONE', #148 ) ;
#4 = DIRECTION ( 'NONE',  ( 0.0000000000000000000, 0.0000000000000000000, 1.000000000000000000 ) ) ;
#5 = PRODUCT ( '372657', '372657', '', ( #24 ) ) ;
#6 = APPROVAL_PERSON_ORGANIZATION ( #196, #12, #53 ) ;
#7 = PRODUCT_DEFINITION ( 'UNKNOWN', '', #184, #118 ) ;
#8 = APPROVAL_ROLE ( '' ) ;
#9 = DATE_AND_TIME ( #195, #123 ) ;
#10 = APPROVAL_DATE_TIME ( #34, #12 ) ;
#11 = ORIENTED_EDGE ( 'NONE', *, *, #48, .F. ) ;
#12 = APPROVAL ( #71, 'UNSPECIFIED' ) ;
#13 = DIRECTION ( 'NONE',  ( -3.491481338843133355E-15, 1.224646799147353207E-16, -1.000000000000000000 ) ) ;
#14 = EDGE_CURVE ( 'NONE', #3, #3, #16, .T. ) ;
#15 = FACE_OUTER_BOUND ( 'NONE', #35, .T. ) ;
#16 = CIRCLE ( 'NONE', #200, 2.000000000000001332 ) ;
#17 = LOCAL_TIME ( 10, 33, 28.00000000000000000, #188 ) ;
#18 = FACE_OUTER_BOUND ( 'NONE', #202, .T. ) ;
#19 = CARTESIAN_POINT ( 'NONE',  ( 1.068974121233950054E-31, 1.999999999999994005, 3.061663567671088681E-17 ) ) ;
#20 = APPROVAL_STATUS ( 'not_yet_approved' ) ;
#21 = CYLINDRICAL_SURFACE ( 'NONE', #157, 1.999999999999995781 ) ;
#22 = ADVANCED_FACE ( 'NONE', ( #42 ), #43, .F. ) ;
#23 = CARTESIAN_POINT ( 'NONE',  ( 0.0000000000000000000, 0.0000000000000000000, 0.0000000000000000000 ) ) ;
#24 = MECHANICAL_CONTEXT ( 'NONE', #90, 'mechanical' ) ;
#25 = SHAPE_DEFINITION_REPRESENTATION ( #33, #166 ) ;
#26 = EDGE_LOOP ( 'NONE', ( #127 ) ) ;
#27 = PERSON_AND_ORGANIZATION_ROLE ( 'classification_officer' ) ;
#28 = CC_DESIGN_DATE_AND_TIME_ASSIGNMENT ( #164, #73, ( #59 ) ) ;
#29 = FACE_OUTER_BOUND ( 'NONE', #163, .T. ) ;
#30 = CYLINDRICAL_SURFACE ( 'NONE', #97, 1.999999999999999112 ) ;
#31 = FACE_OUTER_BOUND ( 'NONE', #60, .T. ) ;
#32 = CLOSED_SHELL ( 'NONE', ( #1, #181, #124, #22 ) ) ;
#33 = PRODUCT_DEFINITION_SHAPE ( 'NONE', 'NONE',  #7 ) ;
#34 = DATE_AND_TIME ( #105, #149 ) ;
#35 = EDGE_LOOP ( 'NONE', ( #11 ) ) ;
#36 = AXIS2_PLACEMENT_3D ( 'NONE', #178, #162, #51 ) ;
#37 = EDGE_LOOP ( 'NONE', ( #119 ) ) ;
#38 = CARTESIAN_POINT ( 'NONE',  ( 1.047444401652940007E-13, -3.673940397442059178E-15, 30.00000000000000000 ) ) ;
#39 = APPROVAL ( #151, 'UNSPECIFIED' ) ;
#40 = CIRCLE ( 'NONE', #113, 1.999999999999994005 ) ;
#41 = DIRECTION ( 'NONE',  ( -4.275831445896958607E-31, -1.000000000000000000, -1.224646799147353207E-16 ) ) ;
#42 = FACE_OUTER_BOUND ( 'NONE', #26, .T. ) ;
#43 = PLANE ( 'NONE',  #108 ) ;
#44 = EDGE_LOOP ( 'NONE', ( #62 ) ) ;
#45 = CC_DESIGN_PERSON_AND_ORGANIZATION_ASSIGNMENT ( #55, #182, ( #184 ) ) ;
#46 = DIRECTION ( 'NONE',  ( -3.491481338843133355E-15, 1.224646799147353207E-16, -1.000000000000000000 ) ) ;
#47 = DIRECTION ( 'NONE',  ( -3.491481338843133355E-15, 1.224646799147353207E-16, -1.000000000000000000 ) ) ;
#48 = EDGE_CURVE ( 'NONE', #144, #144, #102, .T. ) ;
#49 = AXIS2_PLACEMENT_3D ( 'NONE', #95, #13, #96 ) ;
#50 = APPLICATION_PROTOCOL_DEFINITION ( 'international standard', 'config_control_design', 1994, #90 ) ;
#51 = DIRECTION ( 'NONE',  ( -4.275831445896958607E-31, -1.000000000000000000, -1.224646799147353207E-16 ) ) ;
#52 = CIRCLE ( 'NONE', #193, 1.600000000000001421 ) ;
#53 = APPROVAL_ROLE ( '' ) ;
#54 =( GEOMETRIC_REPRESENTATION_CONTEXT ( 3 ) GLOBAL_UNCERTAINTY_ASSIGNED_CONTEXT ( ( #147 ) ) GLOBAL_UNIT_ASSIGNED_CONTEXT ( ( #112, #134, #191 ) ) REPRESENTATION_CONTEXT ( 'NONE', 'WORKASPACE' ) );
#55 = PERSON_AND_ORGANIZATION ( #63, #201 ) ;
#56 = AXIS2_PLACEMENT_3D ( 'NONE', #75, #126, #94 ) ;
#57 = CC_DESIGN_APPROVAL ( #12, ( #59 ) ) ;
#58 = PLANE ( 'NONE',  #56 ) ;
#59 = SECURITY_CLASSIFICATION ( '', '', #120 ) ;
#60 = EDGE_LOOP ( 'NONE', ( #74 ) ) ;
#61 = FACE_OUTER_BOUND ( 'NONE', #169, .T. ) ;
#62 = ORIENTED_EDGE ( 'NONE', *, *, #80, .T. ) ;
#63 = PERSON ( 'UNSPECIFIED', 'UNSPECIFIED', 'UNSPECIFIED', ('UNSPECIFIED'), ('UNSPECIFIED'), ('UNSPECIFIED') ) ;
#64 = FACE_BOUND ( 'NONE', #44, .T. ) ;
#65 = PERSON_AND_ORGANIZATION ( #63, #201 ) ;
#66 = CC_DESIGN_PERSON_AND_ORGANIZATION_ASSIGNMENT ( #154, #27, ( #59 ) ) ;
#67 = VERTEX_POINT ( 'NONE', #133 ) ;
#68 = CARTESIAN_POINT ( 'NONE',  ( 1.047444401652940007E-13, 1.999999999999993561, 30.00000000000000000 ) ) ;
#69 = CARTESIAN_POINT ( 'NONE',  ( 1.047444401652940007E-13, 1.999999999999993561, 30.00000000000000000 ) ) ;
#70 = CARTESIAN_POINT ( 'NONE',  ( 0.0000000000000000000, 0.0000000000000000000, 0.0000000000000000000 ) ) ;
#71 = APPROVAL_STATUS ( 'not_yet_approved' ) ;
#72 = LOCAL_TIME ( 10, 33, 28.00000000000000000, #88 ) ;
#73 = DATE_TIME_ROLE ( 'classification_date' ) ;
#74 = ORIENTED_EDGE ( 'NONE', *, *, #121, .T. ) ;
#75 = CARTESIAN_POINT ( 'NONE',  ( 1.047444401652940007E-13, 1.499759782661850218E-32, 30.00000000000000000 ) ) ;
#76 = CARTESIAN_POINT ( 'NONE',  ( 2.430071011834821320E-13, -8.523541722065579564E-15, 69.60000000000000853 ) ) ;
#77 = DIRECTION ( 'NONE',  ( -3.491481338843133355E-15, 1.224646799147353207E-16, -1.000000000000000000 ) ) ;
#78 = AXIS2_PLACEMENT_3D ( 'NONE', #38, #107, #2 ) ;
#79 = APPROVAL_DATE_TIME ( #81, #110 ) ;
#80 = EDGE_CURVE ( 'NONE', #67, #67, #52, .T. ) ;
#81 = DATE_AND_TIME ( #190, #17 ) ;
#82 = DIRECTION ( 'NONE',  ( 4.275831445896958607E-31, 1.000000000000000000, 1.224646799147353207E-16 ) ) ;
#83 = PERSON_AND_ORGANIZATION ( #63, #201 ) ;
#84 = ADVANCED_FACE ( 'NONE', ( #15 ), #140, .T. ) ;
#85 = PERSON_AND_ORGANIZATION ( #63, #201 ) ;
#86 = ORIENTED_EDGE ( 'NONE', *, *, #14, .T. ) ;
#87 = AXIS2_PLACEMENT_3D ( 'NONE', #23, #4, #101 ) ;
#88 = COORDINATED_UNIVERSAL_TIME_OFFSET ( 1, 0, .AHEAD. ) ;
#89 = ORIENTED_EDGE ( 'NONE', *, *, #121, .F. ) ;
#90 = APPLICATION_CONTEXT ( 'configuration controlled 3d designs of mechanical parts and assemblies' ) ;
#91 = DATE_TIME_ROLE ( 'creation_date' ) ;
#92 = PRODUCT_RELATED_PRODUCT_CATEGORY ( 'detail', '', ( #5 ) ) ;
#93 = ORIENTED_EDGE ( 'NONE', *, *, #128, .T. ) ;
#94 = DIRECTION ( 'NONE',  ( -4.275831445896958607E-31, -1.000000000000000000, -1.224646799147353207E-16 ) ) ;
#95 = CARTESIAN_POINT ( 'NONE',  ( 1.047444401652940007E-13, -3.673940397442059178E-15, 30.00000000000000000 ) ) ;
#96 = DIRECTION ( 'NONE',  ( 0.0000000000000000000, 1.000000000000000000, 0.0000000000000000000 ) ) ;
#97 = AXIS2_PLACEMENT_3D ( 'NONE', #115, #47, #82 ) ;
#98 = APPROVAL_PERSON_ORGANIZATION ( #85, #39, #179 ) ;
#99 = VERTEX_POINT ( 'NONE', #19 ) ;
#100 = APPLICATION_CONTEXT ( 'configuration controlled 3d designs of mechanical parts and assemblies' ) ;
#101 = DIRECTION ( 'NONE',  ( 1.000000000000000000, 0.0000000000000000000, 0.0000000000000000000 ) ) ;
#102 = CIRCLE ( 'NONE', #49, 1.999999999999997113 ) ;
#103 = MANIFOLD_SOLID_BREP ( 'Corps-Déplacer/Copier1[2]', #187 ) ;
#104 = MANIFOLD_SOLID_BREP ( 'Corps-Déplacer/Copier1[1]', #32 ) ;
#105 = CALENDAR_DATE ( 2021, 8, 12 ) ;
#106 = COORDINATED_UNIVERSAL_TIME_OFFSET ( 1, 0, .AHEAD. ) ;
#107 = DIRECTION ( 'NONE',  ( -3.491481338843133355E-15, 1.224646799147353207E-16, -1.000000000000000000 ) ) ;
#108 = AXIS2_PLACEMENT_3D ( 'NONE', #143, #122, #156 ) ;
#109 = DIRECTION ( 'NONE',  ( 0.0000000000000000000, 1.000000000000000000, 0.0000000000000000000 ) ) ;
#110 = APPROVAL ( #20, 'UNSPECIFIED' ) ;
#111 = VERTEX_POINT ( 'NONE', #69 ) ;
#112 =( LENGTH_UNIT ( ) NAMED_UNIT ( * ) SI_UNIT ( .MILLI., .METRE. ) );
#113 = AXIS2_PLACEMENT_3D ( 'NONE', #125, #171, #159 ) ;
#114 = FACE_OUTER_BOUND ( 'NONE', #185, .T. ) ;
#115 = CARTESIAN_POINT ( 'NONE',  ( 0.0000000000000000000, 0.0000000000000000000, 0.0000000000000000000 ) ) ;
#116 = COORDINATED_UNIVERSAL_TIME_OFFSET ( 1, 0, .AHEAD. ) ;
#117 = COORDINATED_UNIVERSAL_TIME_OFFSET ( 1, 0, .AHEAD. ) ;
#118 = DESIGN_CONTEXT ( 'detailed design', #100, 'design' ) ;
#119 = ORIENTED_EDGE ( 'NONE', *, *, #48, .T. ) ;
#120 = SECURITY_CLASSIFICATION_LEVEL ( 'unclassified' ) ;
#121 = EDGE_CURVE ( 'NONE', #99, #99, #40, .T. ) ;
#122 = DIRECTION ( 'NONE',  ( -3.491481338843133355E-15, 1.224646799147353207E-16, -1.000000000000000000 ) ) ;
#123 = LOCAL_TIME ( 10, 33, 28.00000000000000000, #116 ) ;
#124 = ADVANCED_FACE ( 'NONE', ( #18, #64 ), #141, .T. ) ;
#125 = CARTESIAN_POINT ( 'NONE',  ( -7.482688770559941761E-31, 2.624573916502260087E-32, -2.143127241527590274E-16 ) ) ;
#126 = DIRECTION ( 'NONE',  ( 3.491481338843133355E-15, -1.224646799147353207E-16, 1.000000000000000000 ) ) ;
#127 = ORIENTED_EDGE ( 'NONE', *, *, #80, .F. ) ;
#128 = EDGE_CURVE ( 'NONE', #111, #111, #183, .T. ) ;
#129 = DIRECTION ( 'NONE',  ( 0.0000000000000000000, 1.000000000000000000, 0.0000000000000000000 ) ) ;
#130 = APPROVAL_PERSON_ORGANIZATION ( #132, #110, #8 ) ;
#131 = EDGE_LOOP ( 'NONE', ( #86 ) ) ;
#132 = PERSON_AND_ORGANIZATION ( #63, #201 ) ;
#133 = CARTESIAN_POINT ( 'NONE',  ( 2.444036937190193601E-13, 1.599999999999992761, 70.00000000000000000 ) ) ;
#134 =( NAMED_UNIT ( * ) PLANE_ANGLE_UNIT ( ) SI_UNIT ( $, .RADIAN. ) );
#135 = CC_DESIGN_PERSON_AND_ORGANIZATION_ASSIGNMENT ( #83, #161, ( #5 ) ) ;
#136 = PLANE ( 'NONE',  #36 ) ;
#137 = AXIS2_PLACEMENT_3D ( 'NONE', #203, #170, #41 ) ;
#138 = DATE_AND_TIME ( #152, #72 ) ;
#139 = APPROVAL_DATE_TIME ( #9, #39 ) ;
#140 = PLANE ( 'NONE',  #137 ) ;
#141 = CONICAL_SURFACE ( 'NONE', #165, 1.600000000000001421, 0.7853981633974512766 ) ;
#142 = CARTESIAN_POINT ( 'NONE',  ( 2.444036937190193601E-13, -8.572527594031472993E-15, 70.00000000000000000 ) ) ;
#143 = CARTESIAN_POINT ( 'NONE',  ( 2.444036937190193601E-13, 1.199807826129474044E-32, 70.00000000000000000 ) ) ;
#144 = VERTEX_POINT ( 'NONE', #68 ) ;
#145 = ADVANCED_FACE ( 'NONE', ( #114, #146 ), #21, .T. ) ;
#146 = FACE_OUTER_BOUND ( 'NONE', #37, .T. ) ;
#147 = UNCERTAINTY_MEASURE_WITH_UNIT (LENGTH_MEASURE( 1.000000000000000082E-05 ), #112, 'distance_accuracy_value', 'NONE');
#148 = CARTESIAN_POINT ( 'NONE',  ( 2.430071011834821320E-13, 1.999999999999992673, 69.60000000000000853 ) ) ;
#149 = LOCAL_TIME ( 10, 33, 28.00000000000000000, #117 ) ;
#150 = APPLICATION_PROTOCOL_DEFINITION ( 'international standard', 'config_control_design', 1994, #100 ) ;
#151 = APPROVAL_STATUS ( 'not_yet_approved' ) ;
#152 = CALENDAR_DATE ( 2021, 8, 12 ) ;
#153 = CC_DESIGN_APPROVAL ( #39, ( #184 ) ) ;
#154 = PERSON_AND_ORGANIZATION ( #63, #201 ) ;
#155 = PERSON_AND_ORGANIZATION ( #63, #201 ) ;
#156 = DIRECTION ( 'NONE',  ( 4.275831445896958607E-31, 1.000000000000000000, 1.224646799147353207E-16 ) ) ;
#157 = AXIS2_PLACEMENT_3D ( 'NONE', #70, #46, #160 ) ;
#158 = CC_DESIGN_PERSON_AND_ORGANIZATION_ASSIGNMENT ( #155, #167, ( #184 ) ) ;
#159 = DIRECTION ( 'NONE',  ( 4.275831445896959482E-31, 1.000000000000000000, 1.224646799147353207E-16 ) ) ;
#160 = DIRECTION ( 'NONE',  ( 4.275831445896958607E-31, 1.000000000000000000, 1.224646799147352961E-16 ) ) ;
#161 = PERSON_AND_ORGANIZATION_ROLE ( 'design_owner' ) ;
#162 = DIRECTION ( 'NONE',  ( 3.491481338843133355E-15, -1.224646799147353207E-16, 1.000000000000000000 ) ) ;
#163 = EDGE_LOOP ( 'NONE', ( #172 ) ) ;
#164 = DATE_AND_TIME ( #180, #192 ) ;
#165 = AXIS2_PLACEMENT_3D ( 'NONE', #142, #197, #129 ) ;
#166 = ADVANCED_BREP_SHAPE_REPRESENTATION ( '372657', ( #104, #103, #87 ), #54 ) ;
#167 = PERSON_AND_ORGANIZATION_ROLE ( 'creator' ) ;
#168 = ADVANCED_FACE ( 'NONE', ( #31 ), #136, .F. ) ;
#169 = EDGE_LOOP ( 'NONE', ( #93 ) ) ;
#170 = DIRECTION ( 'NONE',  ( 3.491481338843133355E-15, -1.224646799147353207E-16, 1.000000000000000000 ) ) ;
#171 = DIRECTION ( 'NONE',  ( -3.491481338843133355E-15, 1.224646799147353207E-16, -1.000000000000000000 ) ) ;
#172 = ORIENTED_EDGE ( 'NONE', *, *, #128, .F. ) ;
#173 = CC_DESIGN_SECURITY_CLASSIFICATION ( #59, ( #184 ) ) ;
#174 = CARTESIAN_POINT ( 'NONE',  ( 2.444036937190193601E-13, -8.572527594031472993E-15, 70.00000000000000000 ) ) ;
#175 = PERSON_AND_ORGANIZATION_ROLE ( 'creator' ) ;
#176 = CC_DESIGN_PERSON_AND_ORGANIZATION_ASSIGNMENT ( #65, #175, ( #7 ) ) ;
#177 = FACE_OUTER_BOUND ( 'NONE', #131, .T. ) ;
#178 = CARTESIAN_POINT ( 'NONE',  ( -3.741344385279970880E-31, 1.312286958251130044E-32, -1.071563620763795137E-16 ) ) ;
#179 = APPROVAL_ROLE ( '' ) ;
#180 = CALENDAR_DATE ( 2021, 8, 12 ) ;
#181 = ADVANCED_FACE ( 'NONE', ( #29, #177 ), #30, .T. ) ;
#182 = PERSON_AND_ORGANIZATION_ROLE ( 'design_supplier' ) ;
#183 = CIRCLE ( 'NONE', #78, 1.999999999999997113 ) ;
#184 = PRODUCT_DEFINITION_FORMATION_WITH_SPECIFIED_SOURCE ( 'ANY', '', #5, .NOT_KNOWN. ) ;
#185 = EDGE_LOOP ( 'NONE', ( #89 ) ) ;
#186 = DIRECTION ( 'NONE',  ( -3.491481338843133355E-15, 1.224646799147353207E-16, -1.000000000000000000 ) ) ;
#187 = CLOSED_SHELL ( 'NONE', ( #168, #145, #84 ) ) ;
#188 = COORDINATED_UNIVERSAL_TIME_OFFSET ( 1, 0, .AHEAD. ) ;
#189 = CC_DESIGN_DATE_AND_TIME_ASSIGNMENT ( #138, #91, ( #7 ) ) ;
#190 = CALENDAR_DATE ( 2021, 8, 12 ) ;
#191 =( NAMED_UNIT ( * ) SI_UNIT ( $, .STERADIAN. ) SOLID_ANGLE_UNIT ( ) );
#192 = LOCAL_TIME ( 10, 33, 28.00000000000000000, #106 ) ;
#193 = AXIS2_PLACEMENT_3D ( 'NONE', #174, #77, #198 ) ;
#194 = CC_DESIGN_APPROVAL ( #110, ( #7 ) ) ;
#195 = CALENDAR_DATE ( 2021, 8, 12 ) ;
#196 = PERSON_AND_ORGANIZATION ( #63, #201 ) ;
#197 = DIRECTION ( 'NONE',  ( -3.491481338843133355E-15, 1.224646799147353207E-16, -1.000000000000000000 ) ) ;
#198 = DIRECTION ( 'NONE',  ( 0.0000000000000000000, 1.000000000000000000, 0.0000000000000000000 ) ) ;
#199 = ORIENTED_EDGE ( 'NONE', *, *, #14, .F. ) ;
#200 = AXIS2_PLACEMENT_3D ( 'NONE', #76, #186, #109 ) ;
#201 = ORGANIZATION ( 'UNSPECIFIED', 'UNSPECIFIED', '' ) ;
#202 = EDGE_LOOP ( 'NONE', ( #199 ) ) ;
#203 = CARTESIAN_POINT ( 'NONE',  ( 1.047444401652940007E-13, 1.499759782661850218E-32, 30.00000000000000000 ) ) ;
ENDSEC;
END-ISO-10303-21;
