ISO-10303-21;
HEADER;
FILE_DESCRIPTION (( 'STEP AP203' ),
    '1' );
FILE_NAME ('372656.step',
    '2021-12-08T09:33:27',
    ( '' ),
    ( '' ),
    'SwSTEP 2.0',
    'SolidWorks 2019',
    '' );
FILE_SCHEMA (( 'CONFIG_CONTROL_DESIGN' ));
ENDSEC;

DATA;
#1 = DIRECTION ( 'NONE',  ( 3.491481338843133355E-15, -1.224646799147353207E-16, 1.000000000000000000 ) ) ;
#2 = CLOSED_SHELL ( 'NONE', ( #56, #163, #40, #157 ) ) ;
#3 = PLANE ( 'NONE',  #63 ) ;
#4 = DIRECTION ( 'NONE',  ( 0.0000000000000000000, 1.000000000000000000, 0.0000000000000000000 ) ) ;
#5 = ORGANIZATION ( 'UNSPECIFIED', 'UNSPECIFIED', '' ) ;
#6 = CARTESIAN_POINT ( 'NONE',  ( 2.094888803305880013E-13, 1.199807826129476233E-32, 60.00000000000000000 ) ) ;
#7 = COORDINATED_UNIVERSAL_TIME_OFFSET ( 1, 0, .AHEAD. ) ;
#8 = AXIS2_PLACEMENT_3D ( 'NONE', #84, #147, #91 ) ;
#9 = APPROVAL_DATE_TIME ( #153, #79 ) ;
#10 = CALENDAR_DATE ( 2021, 8, 12 ) ;
#11 = CC_DESIGN_PERSON_AND_ORGANIZATION_ASSIGNMENT ( #24, #57, ( #108 ) ) ;
#12 = APPROVAL_STATUS ( 'not_yet_approved' ) ;
#13 = CIRCLE ( 'NONE', #197, 2.000000000000001332 ) ;
#14 = COORDINATED_UNIVERSAL_TIME_OFFSET ( 1, 0, .AHEAD. ) ;
#15 = PRODUCT_RELATED_PRODUCT_CATEGORY ( 'detail', '', ( #108 ) ) ;
#16 = ORIENTED_EDGE ( 'NONE', *, *, #83, .T. ) ;
#17 = EDGE_LOOP ( 'NONE', ( #143 ) ) ;
#18 = DIRECTION ( 'NONE',  ( 0.0000000000000000000, 1.000000000000000000, 0.0000000000000000000 ) ) ;
#19 = PLANE ( 'NONE',  #184 ) ;
#20 = CONICAL_SURFACE ( 'NONE', #140, 1.600000000000001421, 0.7853981633974512766 ) ;
#21 = UNCERTAINTY_MEASURE_WITH_UNIT (LENGTH_MEASURE( 1.000000000000000082E-05 ), #172, 'distance_accuracy_value', 'NONE');
#22 = APPROVAL_STATUS ( 'not_yet_approved' ) ;
#23 = FACE_OUTER_BOUND ( 'NONE', #49, .T. ) ;
#24 = PERSON_AND_ORGANIZATION ( #116, #5 ) ;
#25 = AXIS2_PLACEMENT_3D ( 'NONE', #37, #106, #18 ) ;
#26 = VERTEX_POINT ( 'NONE', #96 ) ;
#27 = EDGE_LOOP ( 'NONE', ( #16 ) ) ;
#28 = DATE_AND_TIME ( #95, #85 ) ;
#29 = PRODUCT_DEFINITION_SHAPE ( 'NONE', 'NONE',  #169 ) ;
#30 = VERTEX_POINT ( 'NONE', #110 ) ;
#31 = CC_DESIGN_APPROVAL ( #132, ( #169 ) ) ;
#32 = APPLICATION_CONTEXT ( 'configuration controlled 3d designs of mechanical parts and assemblies' ) ;
#33 = EDGE_LOOP ( 'NONE', ( #185 ) ) ;
#34 =( GEOMETRIC_REPRESENTATION_CONTEXT ( 3 ) GLOBAL_UNCERTAINTY_ASSIGNED_CONTEXT ( ( #21 ) ) GLOBAL_UNIT_ASSIGNED_CONTEXT ( ( #172, #104, #70 ) ) REPRESENTATION_CONTEXT ( 'NONE', 'WORKASPACE' ) );
#35 = DIRECTION ( 'NONE',  ( -3.491481338843133355E-15, 1.224646799147353207E-16, -1.000000000000000000 ) ) ;
#36 = AXIS2_PLACEMENT_3D ( 'NONE', #88, #148, #4 ) ;
#37 = CARTESIAN_POINT ( 'NONE',  ( 7.681258945454893382E-14, -2.694222958124176809E-15, 22.00000000000000000 ) ) ;
#38 = SECURITY_CLASSIFICATION ( '', '', #125 ) ;
#39 = PLANE ( 'NONE',  #144 ) ;
#40 = ADVANCED_FACE ( 'NONE', ( #50, #68 ), #20, .T. ) ;
#41 = PERSON_AND_ORGANIZATION ( #116, #5 ) ;
#42 = CYLINDRICAL_SURFACE ( 'NONE', #8, 1.999999999999995337 ) ;
#43 = COORDINATED_UNIVERSAL_TIME_OFFSET ( 1, 0, .AHEAD. ) ;
#44 = CARTESIAN_POINT ( 'NONE',  ( 0.0000000000000000000, 0.0000000000000000000, 0.0000000000000000000 ) ) ;
#45 = DATE_TIME_ROLE ( 'creation_date' ) ;
#46 = CARTESIAN_POINT ( 'NONE',  ( 2.080922877950507480E-13, 1.999999999999994005, 59.60000000000000142 ) ) ;
#47 = EDGE_CURVE ( 'NONE', #201, #201, #89, .T. ) ;
#48 = EDGE_LOOP ( 'NONE', ( #81 ) ) ;
#49 = EDGE_LOOP ( 'NONE', ( #202 ) ) ;
#50 = FACE_OUTER_BOUND ( 'NONE', #199, .T. ) ;
#51 = CC_DESIGN_SECURITY_CLASSIFICATION ( #38, ( #64 ) ) ;
#52 = APPROVAL ( #12, 'UNSPECIFIED' ) ;
#53 = CARTESIAN_POINT ( 'NONE',  ( -3.741304549615519511E-31, 1.312272985780929536E-32, -1.071552211376035147E-16 ) ) ;
#54 = DIRECTION ( 'NONE',  ( 0.0000000000000000000, 1.000000000000000000, 0.0000000000000000000 ) ) ;
#55 = FACE_OUTER_BOUND ( 'NONE', #17, .T. ) ;
#56 = ADVANCED_FACE ( 'NONE', ( #176 ), #19, .F. ) ;
#57 = PERSON_AND_ORGANIZATION_ROLE ( 'design_owner' ) ;
#58 = CIRCLE ( 'NONE', #25, 1.999999999999996669 ) ;
#59 = PERSON_AND_ORGANIZATION ( #116, #5 ) ;
#60 = ADVANCED_BREP_SHAPE_REPRESENTATION ( '372656', ( #87, #154, #62 ), #34 ) ;
#61 = EDGE_CURVE ( 'NONE', #186, #186, #58, .T. ) ;
#62 = AXIS2_PLACEMENT_3D ( 'NONE', #44, #165, #168 ) ;
#63 = AXIS2_PLACEMENT_3D ( 'NONE', #53, #1, #161 ) ;
#64 = PRODUCT_DEFINITION_FORMATION_WITH_SPECIFIED_SOURCE ( 'ANY', '', #108, .NOT_KNOWN. ) ;
#65 = ORIENTED_EDGE ( 'NONE', *, *, #191, .F. ) ;
#66 = EDGE_LOOP ( 'NONE', ( #100 ) ) ;
#67 = CARTESIAN_POINT ( 'NONE',  ( 7.681258945454893382E-14, 1.999999999999994005, 22.00000000000000000 ) ) ;
#68 = FACE_BOUND ( 'NONE', #27, .T. ) ;
#69 = FACE_OUTER_BOUND ( 'NONE', #102, .T. ) ;
#70 =( NAMED_UNIT ( * ) SI_UNIT ( $, .STERADIAN. ) SOLID_ANGLE_UNIT ( ) );
#71 = DIRECTION ( 'NONE',  ( 4.275831445896958607E-31, 1.000000000000000000, 1.224646799147353207E-16 ) ) ;
#72 = AXIS2_PLACEMENT_3D ( 'NONE', #181, #122, #162 ) ;
#73 = ADVANCED_FACE ( 'NONE', ( #203, #103 ), #42, .T. ) ;
#74 = PERSON_AND_ORGANIZATION ( #116, #5 ) ;
#75 = CC_DESIGN_PERSON_AND_ORGANIZATION_ASSIGNMENT ( #74, #113, ( #38 ) ) ;
#76 = PERSON_AND_ORGANIZATION ( #116, #5 ) ;
#77 = CC_DESIGN_APPROVAL ( #52, ( #38 ) ) ;
#78 = APPROVAL_STATUS ( 'not_yet_approved' ) ;
#79 = APPROVAL ( #22, 'UNSPECIFIED' ) ;
#80 = AXIS2_PLACEMENT_3D ( 'NONE', #189, #177, #107 ) ;
#81 = ORIENTED_EDGE ( 'NONE', *, *, #130, .F. ) ;
#82 = DIRECTION ( 'NONE',  ( 3.491481338843133355E-15, -1.224646799147353207E-16, 1.000000000000000000 ) ) ;
#83 = EDGE_CURVE ( 'NONE', #30, #30, #128, .T. ) ;
#84 = CARTESIAN_POINT ( 'NONE',  ( 0.0000000000000000000, 0.0000000000000000000, 0.0000000000000000000 ) ) ;
#85 = LOCAL_TIME ( 10, 33, 27.00000000000000000, #171 ) ;
#86 = CC_DESIGN_PERSON_AND_ORGANIZATION_ASSIGNMENT ( #59, #136, ( #169 ) ) ;
#87 = MANIFOLD_SOLID_BREP ( 'Corps-Déplacer/Copier1[1]', #2 ) ;
#88 = CARTESIAN_POINT ( 'NONE',  ( 2.094888803305880013E-13, -7.347880794884118356E-15, 60.00000000000000000 ) ) ;
#89 = CIRCLE ( 'NONE', #72, 1.999999999999996669 ) ;
#90 = PERSON_AND_ORGANIZATION_ROLE ( 'creator' ) ;
#91 = DIRECTION ( 'NONE',  ( 4.275831445896958607E-31, 1.000000000000000000, 1.224646799147353207E-16 ) ) ;
#92 = APPLICATION_PROTOCOL_DEFINITION ( 'international standard', 'config_control_design', 1994, #32 ) ;
#93 = CARTESIAN_POINT ( 'NONE',  ( 7.681258945454893382E-14, 1.999999999999994005, 22.00000000000000000 ) ) ;
#94 = COORDINATED_UNIVERSAL_TIME_OFFSET ( 1, 0, .AHEAD. ) ;
#95 = CALENDAR_DATE ( 2021, 8, 12 ) ;
#96 = CARTESIAN_POINT ( 'NONE',  ( 1.069053792562853011E-31, 1.999999999999994005, 3.061891755426287241E-17 ) ) ;
#97 = DATE_TIME_ROLE ( 'classification_date' ) ;
#98 = AXIS2_PLACEMENT_3D ( 'NONE', #192, #35, #133 ) ;
#99 = EDGE_LOOP ( 'NONE', ( #198 ) ) ;
#100 = ORIENTED_EDGE ( 'NONE', *, *, #191, .T. ) ;
#101 = LOCAL_TIME ( 10, 33, 27.00000000000000000, #43 ) ;
#102 = EDGE_LOOP ( 'NONE', ( #145 ) ) ;
#103 = FACE_OUTER_BOUND ( 'NONE', #99, .T. ) ;
#104 =( NAMED_UNIT ( * ) PLANE_ANGLE_UNIT ( ) SI_UNIT ( $, .RADIAN. ) );
#105 = DIRECTION ( 'NONE',  ( 3.491481338843133355E-15, -1.224646799147353207E-16, 1.000000000000000000 ) ) ;
#106 = DIRECTION ( 'NONE',  ( -3.491481338843133355E-15, 1.224646799147353207E-16, -1.000000000000000000 ) ) ;
#107 = DIRECTION ( 'NONE',  ( 4.275831445896959482E-31, 1.000000000000000000, 1.224646799147353207E-16 ) ) ;
#108 = PRODUCT ( '372656', '372656', '', ( #194 ) ) ;
#109 = DATE_AND_TIME ( #182, #101 ) ;
#110 = CARTESIAN_POINT ( 'NONE',  ( 2.094888803305880013E-13, 1.599999999999994094, 60.00000000000000000 ) ) ;
#111 = LOCAL_TIME ( 10, 33, 27.00000000000000000, #14 ) ;
#112 = CALENDAR_DATE ( 2021, 8, 12 ) ;
#113 = PERSON_AND_ORGANIZATION_ROLE ( 'classification_officer' ) ;
#114 = DIRECTION ( 'NONE',  ( -3.491481338843133355E-15, 1.224646799147353207E-16, -1.000000000000000000 ) ) ;
#115 = PERSON_AND_ORGANIZATION ( #116, #5 ) ;
#116 = PERSON ( 'UNSPECIFIED', 'UNSPECIFIED', 'UNSPECIFIED', ('UNSPECIFIED'), ('UNSPECIFIED'), ('UNSPECIFIED') ) ;
#117 = SHAPE_DEFINITION_REPRESENTATION ( #29, #60 ) ;
#118 = ADVANCED_FACE ( 'NONE', ( #69 ), #3, .F. ) ;
#119 = DIRECTION ( 'NONE',  ( -3.491481338843133355E-15, 1.224646799147353207E-16, -1.000000000000000000 ) ) ;
#120 = FACE_OUTER_BOUND ( 'NONE', #159, .T. ) ;
#121 = CYLINDRICAL_SURFACE ( 'NONE', #98, 1.999999999999999112 ) ;
#122 = DIRECTION ( 'NONE',  ( -3.491481338843133355E-15, 1.224646799147353207E-16, -1.000000000000000000 ) ) ;
#123 = APPLICATION_PROTOCOL_DEFINITION ( 'international standard', 'config_control_design', 1994, #156 ) ;
#124 = APPROVAL_ROLE ( '' ) ;
#125 = SECURITY_CLASSIFICATION_LEVEL ( 'unclassified' ) ;
#126 = CLOSED_SHELL ( 'NONE', ( #118, #73, #195 ) ) ;
#127 = APPROVAL_DATE_TIME ( #158, #52 ) ;
#128 = CIRCLE ( 'NONE', #36, 1.600000000000001421 ) ;
#129 = LOCAL_TIME ( 10, 33, 27.00000000000000000, #7 ) ;
#130 = EDGE_CURVE ( 'NONE', #26, #26, #170, .T. ) ;
#131 = CARTESIAN_POINT ( 'NONE',  ( 7.681258945454893382E-14, 1.499759782661851039E-32, 22.00000000000000000 ) ) ;
#132 = APPROVAL ( #78, 'UNSPECIFIED' ) ;
#133 = DIRECTION ( 'NONE',  ( 4.275831445896958607E-31, 1.000000000000000000, 1.224646799147353207E-16 ) ) ;
#134 = APPROVAL_ROLE ( '' ) ;
#135 = CC_DESIGN_PERSON_AND_ORGANIZATION_ASSIGNMENT ( #137, #138, ( #64 ) ) ;
#136 = PERSON_AND_ORGANIZATION_ROLE ( 'creator' ) ;
#137 = PERSON_AND_ORGANIZATION ( #116, #5 ) ;
#138 = PERSON_AND_ORGANIZATION_ROLE ( 'design_supplier' ) ;
#139 = VERTEX_POINT ( 'NONE', #46 ) ;
#140 = AXIS2_PLACEMENT_3D ( 'NONE', #187, #114, #173 ) ;
#141 = CC_DESIGN_DATE_AND_TIME_ASSIGNMENT ( #28, #97, ( #38 ) ) ;
#142 = ORIENTED_EDGE ( 'NONE', *, *, #61, .F. ) ;
#143 = ORIENTED_EDGE ( 'NONE', *, *, #83, .F. ) ;
#144 = AXIS2_PLACEMENT_3D ( 'NONE', #131, #82, #160 ) ;
#145 = ORIENTED_EDGE ( 'NONE', *, *, #130, .T. ) ;
#146 = DIRECTION ( 'NONE',  ( -4.275831445896958607E-31, -1.000000000000000000, -1.224646799147353207E-16 ) ) ;
#147 = DIRECTION ( 'NONE',  ( -3.491481338843133355E-15, 1.224646799147353207E-16, -1.000000000000000000 ) ) ;
#148 = DIRECTION ( 'NONE',  ( -3.491481338843133355E-15, 1.224646799147353207E-16, -1.000000000000000000 ) ) ;
#149 = CARTESIAN_POINT ( 'NONE',  ( 7.681258945454893382E-14, 1.499759782661851039E-32, 22.00000000000000000 ) ) ;
#150 = CC_DESIGN_DATE_AND_TIME_ASSIGNMENT ( #183, #45, ( #169 ) ) ;
#151 = APPROVAL_PERSON_ORGANIZATION ( #115, #79, #134 ) ;
#152 = APPROVAL_DATE_TIME ( #109, #132 ) ;
#153 = DATE_AND_TIME ( #112, #178 ) ;
#154 = MANIFOLD_SOLID_BREP ( 'Corps-Déplacer/Copier1[2]', #126 ) ;
#155 = PERSON_AND_ORGANIZATION ( #116, #5 ) ;
#156 = APPLICATION_CONTEXT ( 'configuration controlled 3d designs of mechanical parts and assemblies' ) ;
#157 = ADVANCED_FACE ( 'NONE', ( #55 ), #166, .F. ) ;
#158 = DATE_AND_TIME ( #196, #111 ) ;
#159 = EDGE_LOOP ( 'NONE', ( #142 ) ) ;
#160 = DIRECTION ( 'NONE',  ( -4.275831445896958607E-31, -1.000000000000000000, -1.224646799147353207E-16 ) ) ;
#161 = DIRECTION ( 'NONE',  ( -4.275831445896958607E-31, -1.000000000000000000, -1.224646799147353207E-16 ) ) ;
#162 = DIRECTION ( 'NONE',  ( 0.0000000000000000000, 1.000000000000000000, 0.0000000000000000000 ) ) ;
#163 = ADVANCED_FACE ( 'NONE', ( #23, #175 ), #121, .T. ) ;
#164 = AXIS2_PLACEMENT_3D ( 'NONE', #6, #119, #71 ) ;
#165 = DIRECTION ( 'NONE',  ( 0.0000000000000000000, 0.0000000000000000000, 1.000000000000000000 ) ) ;
#166 = PLANE ( 'NONE',  #164 ) ;
#167 = APPROVAL_PERSON_ORGANIZATION ( #41, #132, #124 ) ;
#168 = DIRECTION ( 'NONE',  ( 1.000000000000000000, 0.0000000000000000000, 0.0000000000000000000 ) ) ;
#169 = PRODUCT_DEFINITION ( 'UNKNOWN', '', #64, #180 ) ;
#170 = CIRCLE ( 'NONE', #80, 1.999999999999994005 ) ;
#171 = COORDINATED_UNIVERSAL_TIME_OFFSET ( 1, 0, .AHEAD. ) ;
#172 =( LENGTH_UNIT ( ) NAMED_UNIT ( * ) SI_UNIT ( .MILLI., .METRE. ) );
#173 = DIRECTION ( 'NONE',  ( 0.0000000000000000000, 1.000000000000000000, 0.0000000000000000000 ) ) ;
#174 = APPROVAL_PERSON_ORGANIZATION ( #155, #52, #193 ) ;
#175 = FACE_OUTER_BOUND ( 'NONE', #66, .T. ) ;
#176 = FACE_OUTER_BOUND ( 'NONE', #33, .T. ) ;
#177 = DIRECTION ( 'NONE',  ( -3.491481338843133355E-15, 1.224646799147353207E-16, -1.000000000000000000 ) ) ;
#178 = LOCAL_TIME ( 10, 33, 27.00000000000000000, #94 ) ;
#179 = CARTESIAN_POINT ( 'NONE',  ( 2.080922877950507480E-13, -7.298894922918224927E-15, 59.60000000000000142 ) ) ;
#180 = DESIGN_CONTEXT ( 'detailed design', #32, 'design' ) ;
#181 = CARTESIAN_POINT ( 'NONE',  ( 7.681258945454893382E-14, -2.694222958124176809E-15, 22.00000000000000000 ) ) ;
#182 = CALENDAR_DATE ( 2021, 8, 12 ) ;
#183 = DATE_AND_TIME ( #10, #129 ) ;
#184 = AXIS2_PLACEMENT_3D ( 'NONE', #149, #105, #146 ) ;
#185 = ORIENTED_EDGE ( 'NONE', *, *, #47, .T. ) ;
#186 = VERTEX_POINT ( 'NONE', #93 ) ;
#187 = CARTESIAN_POINT ( 'NONE',  ( 2.094888803305880013E-13, -7.347880794884118356E-15, 60.00000000000000000 ) ) ;
#188 = CC_DESIGN_APPROVAL ( #79, ( #64 ) ) ;
#189 = CARTESIAN_POINT ( 'NONE',  ( -7.482609099231039023E-31, 2.624545971561859071E-32, -2.143104422752070295E-16 ) ) ;
#190 = DIRECTION ( 'NONE',  ( -3.491481338843133355E-15, 1.224646799147353207E-16, -1.000000000000000000 ) ) ;
#191 = EDGE_CURVE ( 'NONE', #139, #139, #13, .T. ) ;
#192 = CARTESIAN_POINT ( 'NONE',  ( 0.0000000000000000000, 0.0000000000000000000, 0.0000000000000000000 ) ) ;
#193 = APPROVAL_ROLE ( '' ) ;
#194 = MECHANICAL_CONTEXT ( 'NONE', #156, 'mechanical' ) ;
#195 = ADVANCED_FACE ( 'NONE', ( #120 ), #39, .T. ) ;
#196 = CALENDAR_DATE ( 2021, 8, 12 ) ;
#197 = AXIS2_PLACEMENT_3D ( 'NONE', #179, #190, #54 ) ;
#198 = ORIENTED_EDGE ( 'NONE', *, *, #61, .T. ) ;
#199 = EDGE_LOOP ( 'NONE', ( #65 ) ) ;
#200 = CC_DESIGN_PERSON_AND_ORGANIZATION_ASSIGNMENT ( #76, #90, ( #64 ) ) ;
#201 = VERTEX_POINT ( 'NONE', #67 ) ;
#202 = ORIENTED_EDGE ( 'NONE', *, *, #47, .F. ) ;
#203 = FACE_OUTER_BOUND ( 'NONE', #48, .T. ) ;
ENDSEC;
END-ISO-10303-21;
