ISO-10303-21;
HEADER;
FILE_DESCRIPTION (( 'STEP AP203' ),
    '1' );
FILE_NAME ('372655.step',
    '2021-12-08T09:33:27',
    ( '' ),
    ( '' ),
    'SwSTEP 2.0',
    'SolidWorks 2019',
    '' );
FILE_SCHEMA (( 'CONFIG_CONTROL_DESIGN' ));
ENDSEC;

DATA;
#1 = DIRECTION ( 'NONE',  ( 4.275831445896959482E-31, 1.000000000000000000, 1.224646799147353207E-16 ) ) ;
#2 = CC_DESIGN_SECURITY_CLASSIFICATION ( #179, ( #201 ) ) ;
#3 = CARTESIAN_POINT ( 'NONE',  ( -3.741304549615519511E-31, 1.312272985780929536E-32, -1.071552211376035147E-16 ) ) ;
#4 = ORIENTED_EDGE ( 'NONE', *, *, #24, .T. ) ;
#5 = VERTEX_POINT ( 'NONE', #160 ) ;
#6 = LOCAL_TIME ( 10, 33, 27.00000000000000000, #81 ) ;
#7 = DIRECTION ( 'NONE',  ( 0.0000000000000000000, 0.0000000000000000000, 1.000000000000000000 ) ) ;
#8 = AXIS2_PLACEMENT_3D ( 'NONE', #43, #91, #19 ) ;
#9 =( LENGTH_UNIT ( ) NAMED_UNIT ( * ) SI_UNIT ( .MILLI., .METRE. ) );
#10 = VERTEX_POINT ( 'NONE', #162 ) ;
#11 = ADVANCED_FACE ( 'NONE', ( #68, #139 ), #16, .T. ) ;
#12 = COORDINATED_UNIVERSAL_TIME_OFFSET ( 1, 0, .AHEAD. ) ;
#13 = EDGE_CURVE ( 'NONE', #144, #144, #129, .T. ) ;
#14 = ORIENTED_EDGE ( 'NONE', *, *, #189, .T. ) ;
#15 = EDGE_LOOP ( 'NONE', ( #4 ) ) ;
#16 = CYLINDRICAL_SURFACE ( 'NONE', #30, 1.999999999999998668 ) ;
#17 = MANIFOLD_SOLID_BREP ( 'Corps-Déplacer/Copier1[2]', #66 ) ;
#18 = EDGE_LOOP ( 'NONE', ( #100 ) ) ;
#19 = DIRECTION ( 'NONE',  ( 0.0000000000000000000, 1.000000000000000000, 0.0000000000000000000 ) ) ;
#20 =( NAMED_UNIT ( * ) PLANE_ANGLE_UNIT ( ) SI_UNIT ( $, .RADIAN. ) );
#21 = ADVANCED_BREP_SHAPE_REPRESENTATION ( '372655', ( #153, #17, #137 ), #194 ) ;
#22 = PRODUCT_DEFINITION ( 'UNKNOWN', '', #201, #172 ) ;
#23 = DIRECTION ( 'NONE',  ( 0.0000000000000000000, 1.000000000000000000, 0.0000000000000000000 ) ) ;
#24 = EDGE_CURVE ( 'NONE', #5, #5, #141, .T. ) ;
#25 = APPROVAL_PERSON_ORGANIZATION ( #197, #64, #38 ) ;
#26 = DIRECTION ( 'NONE',  ( 4.275831445896957731E-31, 1.000000000000000000, 1.224646799147353207E-16 ) ) ;
#27 = FACE_OUTER_BOUND ( 'NONE', #103, .T. ) ;
#28 = DIRECTION ( 'NONE',  ( -3.491481338843133355E-15, 1.224646799147353207E-16, -1.000000000000000000 ) ) ;
#29 = CC_DESIGN_APPROVAL ( #199, ( #201 ) ) ;
#30 = AXIS2_PLACEMENT_3D ( 'NONE', #159, #142, #26 ) ;
#31 = CARTESIAN_POINT ( 'NONE',  ( 0.0000000000000000000, 0.0000000000000000000, 0.0000000000000000000 ) ) ;
#32 = VERTEX_POINT ( 'NONE', #79 ) ;
#33 = CARTESIAN_POINT ( 'NONE',  ( 1.069053792562853011E-31, 1.999999999999994005, 3.061891755426287241E-17 ) ) ;
#34 = PERSON_AND_ORGANIZATION_ROLE ( 'design_owner' ) ;
#35 = CIRCLE ( 'NONE', #69, 1.999999999999996225 ) ;
#36 = ADVANCED_FACE ( 'NONE', ( #171 ), #123, .T. ) ;
#37 = EDGE_LOOP ( 'NONE', ( #84 ) ) ;
#38 = APPROVAL_ROLE ( '' ) ;
#39 = AXIS2_PLACEMENT_3D ( 'NONE', #3, #104, #155 ) ;
#40 = EDGE_CURVE ( 'NONE', #10, #10, #35, .T. ) ;
#41 = ORIENTED_EDGE ( 'NONE', *, *, #40, .F. ) ;
#42 = FACE_OUTER_BOUND ( 'NONE', #18, .T. ) ;
#43 = CARTESIAN_POINT ( 'NONE',  ( 2.094888803305880013E-13, -7.347880794884118356E-15, 60.00000000000000000 ) ) ;
#44 = DIRECTION ( 'NONE',  ( -3.491481338843133355E-15, 1.224646799147353207E-16, -1.000000000000000000 ) ) ;
#45 = DATE_TIME_ROLE ( 'creation_date' ) ;
#46 = LOCAL_TIME ( 10, 33, 27.00000000000000000, #49 ) ;
#47 = AXIS2_PLACEMENT_3D ( 'NONE', #67, #122, #60 ) ;
#48 = PERSON_AND_ORGANIZATION ( #121, #86 ) ;
#49 = COORDINATED_UNIVERSAL_TIME_OFFSET ( 1, 0, .AHEAD. ) ;
#50 = PERSON_AND_ORGANIZATION ( #121, #86 ) ;
#51 = PERSON_AND_ORGANIZATION ( #121, #86 ) ;
#52 = ORIENTED_EDGE ( 'NONE', *, *, #24, .F. ) ;
#53 = ORIENTED_EDGE ( 'NONE', *, *, #40, .T. ) ;
#54 = CC_DESIGN_PERSON_AND_ORGANIZATION_ASSIGNMENT ( #50, #151, ( #179 ) ) ;
#55 = FACE_BOUND ( 'NONE', #183, .T. ) ;
#56 = FACE_OUTER_BOUND ( 'NONE', #37, .T. ) ;
#57 = DIRECTION ( 'NONE',  ( -3.491481338843133355E-15, 1.224646799147353207E-16, -1.000000000000000000 ) ) ;
#58 = CC_DESIGN_PERSON_AND_ORGANIZATION_ASSIGNMENT ( #127, #34, ( #126 ) ) ;
#59 = CARTESIAN_POINT ( 'NONE',  ( 5.586370142149013368E-14, -1.959434878635765131E-15, 16.00000000000000000 ) ) ;
#60 = DIRECTION ( 'NONE',  ( -4.275831445896958607E-31, -1.000000000000000000, -1.224646799147353207E-16 ) ) ;
#61 = APPROVAL_STATUS ( 'not_yet_approved' ) ;
#62 = CIRCLE ( 'NONE', #149, 1.600000000000001421 ) ;
#63 = COORDINATED_UNIVERSAL_TIME_OFFSET ( 1, 0, .AHEAD. ) ;
#64 = APPROVAL ( #112, 'UNSPECIFIED' ) ;
#65 = LOCAL_TIME ( 10, 33, 27.00000000000000000, #12 ) ;
#66 = CLOSED_SHELL ( 'NONE', ( #70, #131, #36 ) ) ;
#67 = CARTESIAN_POINT ( 'NONE',  ( 5.586370142149013368E-14, 1.499759782661851313E-32, 16.00000000000000000 ) ) ;
#68 = FACE_OUTER_BOUND ( 'NONE', #83, .T. ) ;
#69 = AXIS2_PLACEMENT_3D ( 'NONE', #203, #138, #202 ) ;
#70 = ADVANCED_FACE ( 'NONE', ( #168 ), #186, .F. ) ;
#71 = DIRECTION ( 'NONE',  ( -3.491481338843133355E-15, 1.224646799147353207E-16, -1.000000000000000000 ) ) ;
#72 = DIRECTION ( 'NONE',  ( -4.275831445896958607E-31, -1.000000000000000000, -1.224646799147353207E-16 ) ) ;
#73 = UNCERTAINTY_MEASURE_WITH_UNIT (LENGTH_MEASURE( 1.000000000000000082E-05 ), #9, 'distance_accuracy_value', 'NONE');
#74 = CC_DESIGN_APPROVAL ( #64, ( #179 ) ) ;
#75 = PLANE ( 'NONE',  #145 ) ;
#76 = APPLICATION_PROTOCOL_DEFINITION ( 'international standard', 'config_control_design', 1994, #164 ) ;
#77 = PERSON_AND_ORGANIZATION ( #121, #86 ) ;
#78 = APPROVAL_DATE_TIME ( #150, #193 ) ;
#79 = CARTESIAN_POINT ( 'NONE',  ( 2.094888803305880013E-13, 1.599999999999994094, 60.00000000000000000 ) ) ;
#80 = ADVANCED_FACE ( 'NONE', ( #167, #55 ), #92, .T. ) ;
#81 = COORDINATED_UNIVERSAL_TIME_OFFSET ( 1, 0, .AHEAD. ) ;
#82 = APPROVAL_PERSON_ORGANIZATION ( #77, #193, #98 ) ;
#83 = EDGE_LOOP ( 'NONE', ( #182 ) ) ;
#84 = ORIENTED_EDGE ( 'NONE', *, *, #93, .F. ) ;
#85 = DATE_TIME_ROLE ( 'classification_date' ) ;
#86 = ORGANIZATION ( 'UNSPECIFIED', 'UNSPECIFIED', '' ) ;
#87 = CALENDAR_DATE ( 2021, 8, 12 ) ;
#88 = PRODUCT_RELATED_PRODUCT_CATEGORY ( 'detail', '', ( #126 ) ) ;
#89 = DIRECTION ( 'NONE',  ( 0.0000000000000000000, 1.000000000000000000, 0.0000000000000000000 ) ) ;
#90 = DIRECTION ( 'NONE',  ( -3.491481338843133355E-15, 1.224646799147353207E-16, -1.000000000000000000 ) ) ;
#91 = DIRECTION ( 'NONE',  ( -3.491481338843133355E-15, 1.224646799147353207E-16, -1.000000000000000000 ) ) ;
#92 = CONICAL_SURFACE ( 'NONE', #8, 1.600000000000001421, 0.7853981633974512766 ) ;
#93 = EDGE_CURVE ( 'NONE', #32, #32, #62, .T. ) ;
#94 = CARTESIAN_POINT ( 'NONE',  ( 5.586370142149013368E-14, 1.499759782661851313E-32, 16.00000000000000000 ) ) ;
#95 = DIRECTION ( 'NONE',  ( 0.0000000000000000000, 1.000000000000000000, 0.0000000000000000000 ) ) ;
#96 = CALENDAR_DATE ( 2021, 8, 12 ) ;
#97 = MECHANICAL_CONTEXT ( 'NONE', #200, 'mechanical' ) ;
#98 = APPROVAL_ROLE ( '' ) ;
#99 = ADVANCED_FACE ( 'NONE', ( #56 ), #120, .F. ) ;
#100 = ORIENTED_EDGE ( 'NONE', *, *, #13, .F. ) ;
#101 = CC_DESIGN_APPROVAL ( #193, ( #22 ) ) ;
#102 = COORDINATED_UNIVERSAL_TIME_OFFSET ( 1, 0, .AHEAD. ) ;
#103 = EDGE_LOOP ( 'NONE', ( #14 ) ) ;
#104 = DIRECTION ( 'NONE',  ( 3.491481338843133355E-15, -1.224646799147353207E-16, 1.000000000000000000 ) ) ;
#105 = DIRECTION ( 'NONE',  ( -3.491481338843133355E-15, 1.224646799147353207E-16, -1.000000000000000000 ) ) ;
#106 = FACE_OUTER_BOUND ( 'NONE', #184, .T. ) ;
#107 = CYLINDRICAL_SURFACE ( 'NONE', #140, 1.999999999999994893 ) ;
#108 = CARTESIAN_POINT ( 'NONE',  ( 2.080922877950507480E-13, -7.298894922918224927E-15, 59.60000000000000142 ) ) ;
#109 = APPROVAL_PERSON_ORGANIZATION ( #48, #199, #192 ) ;
#110 = CARTESIAN_POINT ( 'NONE',  ( 5.586370142149013368E-14, 1.999999999999994005, 16.00000000000000000 ) ) ;
#111 = CALENDAR_DATE ( 2021, 8, 12 ) ;
#112 = APPROVAL_STATUS ( 'not_yet_approved' ) ;
#113 = LOCAL_TIME ( 10, 33, 27.00000000000000000, #63 ) ;
#114 = DATE_AND_TIME ( #87, #65 ) ;
#115 = AXIS2_PLACEMENT_3D ( 'NONE', #156, #71, #1 ) ;
#116 = PERSON_AND_ORGANIZATION ( #121, #86 ) ;
#117 = ORIENTED_EDGE ( 'NONE', *, *, #93, .T. ) ;
#118 = ORIENTED_EDGE ( 'NONE', *, *, #13, .T. ) ;
#119 = CARTESIAN_POINT ( 'NONE',  ( 2.094888803305880013E-13, -7.347880794884118356E-15, 60.00000000000000000 ) ) ;
#120 = PLANE ( 'NONE',  #198 ) ;
#121 = PERSON ( 'UNSPECIFIED', 'UNSPECIFIED', 'UNSPECIFIED', ('UNSPECIFIED'), ('UNSPECIFIED'), ('UNSPECIFIED') ) ;
#122 = DIRECTION ( 'NONE',  ( 3.491481338843133355E-15, -1.224646799147353207E-16, 1.000000000000000000 ) ) ;
#123 = PLANE ( 'NONE',  #47 ) ;
#124 = CC_DESIGN_DATE_AND_TIME_ASSIGNMENT ( #114, #85, ( #179 ) ) ;
#125 = PERSON_AND_ORGANIZATION_ROLE ( 'creator' ) ;
#126 = PRODUCT ( '372655', '372655', '', ( #97 ) ) ;
#127 = PERSON_AND_ORGANIZATION ( #121, #86 ) ;
#128 = APPROVAL_STATUS ( 'not_yet_approved' ) ;
#129 = CIRCLE ( 'NONE', #115, 1.999999999999994005 ) ;
#130 = APPLICATION_PROTOCOL_DEFINITION ( 'international standard', 'config_control_design', 1994, #200 ) ;
#131 = ADVANCED_FACE ( 'NONE', ( #42, #106 ), #107, .T. ) ;
#132 = PERSON_AND_ORGANIZATION_ROLE ( 'design_supplier' ) ;
#133 = SECURITY_CLASSIFICATION_LEVEL ( 'unclassified' ) ;
#134 = ADVANCED_FACE ( 'NONE', ( #27 ), #75, .F. ) ;
#135 = EDGE_LOOP ( 'NONE', ( #52 ) ) ;
#136 = EDGE_LOOP ( 'NONE', ( #118 ) ) ;
#137 = AXIS2_PLACEMENT_3D ( 'NONE', #31, #7, #147 ) ;
#138 = DIRECTION ( 'NONE',  ( -3.491481338843133355E-15, 1.224646799147353207E-16, -1.000000000000000000 ) ) ;
#139 = FACE_OUTER_BOUND ( 'NONE', #15, .T. ) ;
#140 = AXIS2_PLACEMENT_3D ( 'NONE', #169, #28, #170 ) ;
#141 = CIRCLE ( 'NONE', #177, 2.000000000000001332 ) ;
#142 = DIRECTION ( 'NONE',  ( -3.491481338843133355E-15, 1.224646799147353207E-16, -1.000000000000000000 ) ) ;
#143 = CC_DESIGN_PERSON_AND_ORGANIZATION_ASSIGNMENT ( #51, #180, ( #201 ) ) ;
#144 = VERTEX_POINT ( 'NONE', #33 ) ;
#145 = AXIS2_PLACEMENT_3D ( 'NONE', #94, #187, #72 ) ;
#146 = CALENDAR_DATE ( 2021, 8, 12 ) ;
#147 = DIRECTION ( 'NONE',  ( 1.000000000000000000, 0.0000000000000000000, 0.0000000000000000000 ) ) ;
#148 = LOCAL_TIME ( 10, 33, 27.00000000000000000, #102 ) ;
#149 = AXIS2_PLACEMENT_3D ( 'NONE', #119, #105, #23 ) ;
#150 = DATE_AND_TIME ( #96, #6 ) ;
#151 = PERSON_AND_ORGANIZATION_ROLE ( 'classification_officer' ) ;
#152 = APPROVAL_DATE_TIME ( #175, #199 ) ;
#153 = MANIFOLD_SOLID_BREP ( 'Corps-Déplacer/Copier1[1]', #196 ) ;
#154 = DATE_AND_TIME ( #178, #148 ) ;
#155 = DIRECTION ( 'NONE',  ( -4.275831445896958607E-31, -1.000000000000000000, -1.224646799147353207E-16 ) ) ;
#156 = CARTESIAN_POINT ( 'NONE',  ( -7.482609099231039023E-31, 2.624545971561859071E-32, -2.143104422752070295E-16 ) ) ;
#157 = CC_DESIGN_PERSON_AND_ORGANIZATION_ASSIGNMENT ( #161, #125, ( #22 ) ) ;
#158 = DIRECTION ( 'NONE',  ( 4.275831445896958607E-31, 1.000000000000000000, 1.224646799147353207E-16 ) ) ;
#159 = CARTESIAN_POINT ( 'NONE',  ( 0.0000000000000000000, 0.0000000000000000000, 0.0000000000000000000 ) ) ;
#160 = CARTESIAN_POINT ( 'NONE',  ( 2.080922877950507480E-13, 1.999999999999994005, 59.60000000000000142 ) ) ;
#161 = PERSON_AND_ORGANIZATION ( #121, #86 ) ;
#162 = CARTESIAN_POINT ( 'NONE',  ( 5.586370142149013368E-14, 1.999999999999994005, 16.00000000000000000 ) ) ;
#163 = CC_DESIGN_PERSON_AND_ORGANIZATION_ASSIGNMENT ( #116, #132, ( #201 ) ) ;
#164 = APPLICATION_CONTEXT ( 'configuration controlled 3d designs of mechanical parts and assemblies' ) ;
#165 = EDGE_LOOP ( 'NONE', ( #41 ) ) ;
#166 = CIRCLE ( 'NONE', #191, 1.999999999999996225 ) ;
#167 = FACE_OUTER_BOUND ( 'NONE', #135, .T. ) ;
#168 = FACE_OUTER_BOUND ( 'NONE', #136, .T. ) ;
#169 = CARTESIAN_POINT ( 'NONE',  ( 0.0000000000000000000, 0.0000000000000000000, 0.0000000000000000000 ) ) ;
#170 = DIRECTION ( 'NONE',  ( 4.275831445896958607E-31, 1.000000000000000000, 1.224646799147353207E-16 ) ) ;
#171 = FACE_OUTER_BOUND ( 'NONE', #165, .T. ) ;
#172 = DESIGN_CONTEXT ( 'detailed design', #164, 'design' ) ;
#173 = VERTEX_POINT ( 'NONE', #110 ) ;
#174 = PRODUCT_DEFINITION_SHAPE ( 'NONE', 'NONE',  #22 ) ;
#175 = DATE_AND_TIME ( #111, #46 ) ;
#176 = CC_DESIGN_DATE_AND_TIME_ASSIGNMENT ( #188, #45, ( #22 ) ) ;
#177 = AXIS2_PLACEMENT_3D ( 'NONE', #108, #57, #89 ) ;
#178 = CALENDAR_DATE ( 2021, 8, 12 ) ;
#179 = SECURITY_CLASSIFICATION ( '', '', #133 ) ;
#180 = PERSON_AND_ORGANIZATION_ROLE ( 'creator' ) ;
#181 = APPROVAL_DATE_TIME ( #154, #64 ) ;
#182 = ORIENTED_EDGE ( 'NONE', *, *, #189, .F. ) ;
#183 = EDGE_LOOP ( 'NONE', ( #117 ) ) ;
#184 = EDGE_LOOP ( 'NONE', ( #53 ) ) ;
#185 = CARTESIAN_POINT ( 'NONE',  ( 2.094888803305880013E-13, 1.199807826129476233E-32, 60.00000000000000000 ) ) ;
#186 = PLANE ( 'NONE',  #39 ) ;
#187 = DIRECTION ( 'NONE',  ( 3.491481338843133355E-15, -1.224646799147353207E-16, 1.000000000000000000 ) ) ;
#188 = DATE_AND_TIME ( #146, #113 ) ;
#189 = EDGE_CURVE ( 'NONE', #173, #173, #166, .T. ) ;
#190 =( NAMED_UNIT ( * ) SI_UNIT ( $, .STERADIAN. ) SOLID_ANGLE_UNIT ( ) );
#191 = AXIS2_PLACEMENT_3D ( 'NONE', #59, #44, #95 ) ;
#192 = APPROVAL_ROLE ( '' ) ;
#193 = APPROVAL ( #128, 'UNSPECIFIED' ) ;
#194 =( GEOMETRIC_REPRESENTATION_CONTEXT ( 3 ) GLOBAL_UNCERTAINTY_ASSIGNED_CONTEXT ( ( #73 ) ) GLOBAL_UNIT_ASSIGNED_CONTEXT ( ( #9, #20, #190 ) ) REPRESENTATION_CONTEXT ( 'NONE', 'WORKASPACE' ) );
#195 = SHAPE_DEFINITION_REPRESENTATION ( #174, #21 ) ;
#196 = CLOSED_SHELL ( 'NONE', ( #134, #11, #80, #99 ) ) ;
#197 = PERSON_AND_ORGANIZATION ( #121, #86 ) ;
#198 = AXIS2_PLACEMENT_3D ( 'NONE', #185, #90, #158 ) ;
#199 = APPROVAL ( #61, 'UNSPECIFIED' ) ;
#200 = APPLICATION_CONTEXT ( 'configuration controlled 3d designs of mechanical parts and assemblies' ) ;
#201 = PRODUCT_DEFINITION_FORMATION_WITH_SPECIFIED_SOURCE ( 'ANY', '', #126, .NOT_KNOWN. ) ;
#202 = DIRECTION ( 'NONE',  ( 0.0000000000000000000, 1.000000000000000000, 0.0000000000000000000 ) ) ;
#203 = CARTESIAN_POINT ( 'NONE',  ( 5.586370142149013368E-14, -1.959434878635765131E-15, 16.00000000000000000 ) ) ;
ENDSEC;
END-ISO-10303-21;
