ISO-10303-21;
HEADER;
FILE_DESCRIPTION (( 'STEP AP203' ),
    '1' );
FILE_NAME ('372654.step',
    '2021-12-08T09:33:26',
    ( '' ),
    ( '' ),
    'SwSTEP 2.0',
    'SolidWorks 2019',
    '' );
FILE_SCHEMA (( 'CONFIG_CONTROL_DESIGN' ));
ENDSEC;

DATA;
#1 = CIRCLE ( 'NONE', #71, 1.999999999999995337 ) ;
#2 = CARTESIAN_POINT ( 'NONE',  ( 4.189777606611760026E-14, 1.499759782661852408E-32, 12.00000000000000000 ) ) ;
#3 = PERSON_AND_ORGANIZATION ( #52, #171 ) ;
#4 = CYLINDRICAL_SURFACE ( 'NONE', #128, 1.999999999999994893 ) ;
#5 = CC_DESIGN_APPROVAL ( #55, ( #125 ) ) ;
#6 = CARTESIAN_POINT ( 'NONE',  ( 0.0000000000000000000, 0.0000000000000000000, 0.0000000000000000000 ) ) ;
#7 = CALENDAR_DATE ( 2021, 8, 12 ) ;
#8 = ADVANCED_FACE ( 'NONE', ( #124 ), #182, .F. ) ;
#9 = APPROVAL_ROLE ( '' ) ;
#10 = FACE_OUTER_BOUND ( 'NONE', #113, .T. ) ;
#11 = DIRECTION ( 'NONE',  ( -3.491481338843133355E-15, 1.224646799147353207E-16, -1.000000000000000000 ) ) ;
#12 = PERSON_AND_ORGANIZATION_ROLE ( 'design_owner' ) ;
#13 = ADVANCED_FACE ( 'NONE', ( #64 ), #48, .F. ) ;
#14 = CALENDAR_DATE ( 2021, 8, 12 ) ;
#15 = EDGE_LOOP ( 'NONE', ( #184 ) ) ;
#16 = LOCAL_TIME ( 10, 33, 26.00000000000000000, #185 ) ;
#17 =( NAMED_UNIT ( * ) SI_UNIT ( $, .STERADIAN. ) SOLID_ANGLE_UNIT ( ) );
#18 = PRODUCT_DEFINITION_SHAPE ( 'NONE', 'NONE',  #125 ) ;
#19 = LOCAL_TIME ( 10, 33, 26.00000000000000000, #105 ) ;
#20 = APPROVAL_PERSON_ORGANIZATION ( #169, #155, #68 ) ;
#21 = VERTEX_POINT ( 'NONE', #77 ) ;
#22 = FACE_OUTER_BOUND ( 'NONE', #15, .T. ) ;
#23 = PERSON_AND_ORGANIZATION ( #52, #171 ) ;
#24 = PLANE ( 'NONE',  #73 ) ;
#25 = CARTESIAN_POINT ( 'NONE',  ( 0.0000000000000000000, 0.0000000000000000000, 0.0000000000000000000 ) ) ;
#26 = DATE_AND_TIME ( #7, #162 ) ;
#27 = DIRECTION ( 'NONE',  ( -4.275831445896958607E-31, -1.000000000000000000, -1.224646799147353207E-16 ) ) ;
#28 = ORIENTED_EDGE ( 'NONE', *, *, #51, .T. ) ;
#29 = COORDINATED_UNIVERSAL_TIME_OFFSET ( 1, 0, .AHEAD. ) ;
#30 = DIRECTION ( 'NONE',  ( 1.000000000000000000, 0.0000000000000000000, 0.0000000000000000000 ) ) ;
#31 = APPLICATION_PROTOCOL_DEFINITION ( 'international standard', 'config_control_design', 1994, #159 ) ;
#32 = DATE_AND_TIME ( #14, #16 ) ;
#33 = ADVANCED_BREP_SHAPE_REPRESENTATION ( '372654', ( #111, #114, #110 ), #83 ) ;
#34 = CARTESIAN_POINT ( 'NONE',  ( 2.094888803305880013E-13, -7.347880794884118356E-15, 60.00000000000000000 ) ) ;
#35 = AXIS2_PLACEMENT_3D ( 'NONE', #6, #88, #149 ) ;
#36 = CC_DESIGN_PERSON_AND_ORGANIZATION_ASSIGNMENT ( #23, #89, ( #198 ) ) ;
#37 = CC_DESIGN_APPROVAL ( #131, ( #123 ) ) ;
#38 = CALENDAR_DATE ( 2021, 8, 12 ) ;
#39 = DIRECTION ( 'NONE',  ( -3.491481338843133355E-15, 1.224646799147353207E-16, -1.000000000000000000 ) ) ;
#40 = PRODUCT ( '372654', '372654', '', ( #142 ) ) ;
#41 = EDGE_LOOP ( 'NONE', ( #104 ) ) ;
#42 = DATE_AND_TIME ( #60, #50 ) ;
#43 = CARTESIAN_POINT ( 'NONE',  ( 4.189777606611760026E-14, -1.469576158976823947E-15, 12.00000000000000000 ) ) ;
#44 = CIRCLE ( 'NONE', #140, 1.600000000000001421 ) ;
#45 = CARTESIAN_POINT ( 'NONE',  ( -7.482609099231039023E-31, 2.624545971561859071E-32, -2.143104422752070295E-16 ) ) ;
#46 = DIRECTION ( 'NONE',  ( 3.491481338843133355E-15, -1.224646799147353207E-16, 1.000000000000000000 ) ) ;
#47 = PERSON_AND_ORGANIZATION_ROLE ( 'creator' ) ;
#48 = PLANE ( 'NONE',  #85 ) ;
#49 = DIRECTION ( 'NONE',  ( -4.275831445896958607E-31, -1.000000000000000000, -1.224646799147353207E-16 ) ) ;
#50 = LOCAL_TIME ( 10, 33, 26.00000000000000000, #29 ) ;
#51 = EDGE_CURVE ( 'NONE', #161, #161, #44, .T. ) ;
#52 = PERSON ( 'UNSPECIFIED', 'UNSPECIFIED', 'UNSPECIFIED', ('UNSPECIFIED'), ('UNSPECIFIED'), ('UNSPECIFIED') ) ;
#53 = APPROVAL_PERSON_ORGANIZATION ( #173, #131, #9 ) ;
#54 = UNCERTAINTY_MEASURE_WITH_UNIT (LENGTH_MEASURE( 1.000000000000000082E-05 ), #183, 'distance_accuracy_value', 'NONE');
#55 = APPROVAL ( #108, 'UNSPECIFIED' ) ;
#56 = APPROVAL_DATE_TIME ( #42, #155 ) ;
#57 = AXIS2_PLACEMENT_3D ( 'NONE', #101, #92, #164 ) ;
#58 = FACE_OUTER_BOUND ( 'NONE', #93, .T. ) ;
#59 = EDGE_LOOP ( 'NONE', ( #194 ) ) ;
#60 = CALENDAR_DATE ( 2021, 8, 12 ) ;
#61 = FACE_BOUND ( 'NONE', #179, .T. ) ;
#62 = PRODUCT_RELATED_PRODUCT_CATEGORY ( 'detail', '', ( #40 ) ) ;
#63 = APPLICATION_PROTOCOL_DEFINITION ( 'international standard', 'config_control_design', 1994, #156 ) ;
#64 = FACE_OUTER_BOUND ( 'NONE', #96, .T. ) ;
#65 = DATE_AND_TIME ( #69, #19 ) ;
#66 = EDGE_LOOP ( 'NONE', ( #199 ) ) ;
#67 = ORIENTED_EDGE ( 'NONE', *, *, #95, .F. ) ;
#68 = APPROVAL_ROLE ( '' ) ;
#69 = CALENDAR_DATE ( 2021, 8, 12 ) ;
#70 = ADVANCED_FACE ( 'NONE', ( #191 ), #24, .F. ) ;
#71 = AXIS2_PLACEMENT_3D ( 'NONE', #43, #39, #163 ) ;
#72 = DATE_AND_TIME ( #38, #187 ) ;
#73 = AXIS2_PLACEMENT_3D ( 'NONE', #90, #76, #176 ) ;
#74 = EDGE_CURVE ( 'NONE', #21, #21, #180, .T. ) ;
#75 = DIRECTION ( 'NONE',  ( 0.0000000000000000000, 1.000000000000000000, 0.0000000000000000000 ) ) ;
#76 = DIRECTION ( 'NONE',  ( 3.491481338843133355E-15, -1.224646799147353207E-16, 1.000000000000000000 ) ) ;
#77 = CARTESIAN_POINT ( 'NONE',  ( 4.189777606611760026E-14, 1.999999999999994005, 12.00000000000000000 ) ) ;
#78 = CC_DESIGN_PERSON_AND_ORGANIZATION_ASSIGNMENT ( #3, #116, ( #198 ) ) ;
#79 = CARTESIAN_POINT ( 'NONE',  ( 4.189777606611760026E-14, 1.499759782661852408E-32, 12.00000000000000000 ) ) ;
#80 = PERSON_AND_ORGANIZATION ( #52, #171 ) ;
#81 = DATE_TIME_ROLE ( 'creation_date' ) ;
#82 = CC_DESIGN_PERSON_AND_ORGANIZATION_ASSIGNMENT ( #148, #135, ( #123 ) ) ;
#83 =( GEOMETRIC_REPRESENTATION_CONTEXT ( 3 ) GLOBAL_UNCERTAINTY_ASSIGNED_CONTEXT ( ( #54 ) ) GLOBAL_UNIT_ASSIGNED_CONTEXT ( ( #183, #170, #17 ) ) REPRESENTATION_CONTEXT ( 'NONE', 'WORKASPACE' ) );
#84 = ADVANCED_FACE ( 'NONE', ( #58, #61 ), #94, .T. ) ;
#85 = AXIS2_PLACEMENT_3D ( 'NONE', #79, #46, #49 ) ;
#86 = SECURITY_CLASSIFICATION_LEVEL ( 'unclassified' ) ;
#87 = CARTESIAN_POINT ( 'NONE',  ( 2.080922877950507480E-13, 1.999999999999994005, 59.60000000000000142 ) ) ;
#88 = DIRECTION ( 'NONE',  ( -3.491481338843133355E-15, 1.224646799147353207E-16, -1.000000000000000000 ) ) ;
#89 = PERSON_AND_ORGANIZATION_ROLE ( 'design_supplier' ) ;
#90 = CARTESIAN_POINT ( 'NONE',  ( -3.741304549615519511E-31, 1.312272985780929536E-32, -1.071552211376035147E-16 ) ) ;
#91 = CARTESIAN_POINT ( 'NONE',  ( 2.094888803305880013E-13, 1.599999999999994094, 60.00000000000000000 ) ) ;
#92 = DIRECTION ( 'NONE',  ( -3.491481338843133355E-15, 1.224646799147353207E-16, -1.000000000000000000 ) ) ;
#93 = EDGE_LOOP ( 'NONE', ( #127 ) ) ;
#94 = CONICAL_SURFACE ( 'NONE', #145, 1.600000000000001421, 0.7853981633974512766 ) ;
#95 = EDGE_CURVE ( 'NONE', #193, #193, #118, .T. ) ;
#96 = EDGE_LOOP ( 'NONE', ( #122 ) ) ;
#97 = DIRECTION ( 'NONE',  ( 0.0000000000000000000, 1.000000000000000000, 0.0000000000000000000 ) ) ;
#98 = DESIGN_CONTEXT ( 'detailed design', #159, 'design' ) ;
#99 = VERTEX_POINT ( 'NONE', #87 ) ;
#100 = DIRECTION ( 'NONE',  ( -3.491481338843133355E-15, 1.224646799147353207E-16, -1.000000000000000000 ) ) ;
#101 = CARTESIAN_POINT ( 'NONE',  ( 2.080922877950507480E-13, -7.298894922918224927E-15, 59.60000000000000142 ) ) ;
#102 = APPROVAL_PERSON_ORGANIZATION ( #80, #55, #201 ) ;
#103 = FACE_OUTER_BOUND ( 'NONE', #66, .T. ) ;
#104 = ORIENTED_EDGE ( 'NONE', *, *, #51, .F. ) ;
#105 = COORDINATED_UNIVERSAL_TIME_OFFSET ( 1, 0, .AHEAD. ) ;
#106 = DIRECTION ( 'NONE',  ( 4.275831445896958607E-31, 1.000000000000000000, 1.224646799147353207E-16 ) ) ;
#107 = DIRECTION ( 'NONE',  ( 0.0000000000000000000, 0.0000000000000000000, 1.000000000000000000 ) ) ;
#108 = APPROVAL_STATUS ( 'not_yet_approved' ) ;
#109 = CC_DESIGN_DATE_AND_TIME_ASSIGNMENT ( #32, #81, ( #125 ) ) ;
#110 = AXIS2_PLACEMENT_3D ( 'NONE', #120, #107, #30 ) ;
#111 = MANIFOLD_SOLID_BREP ( 'Corps-Déplacer/Copier1[1]', #143 ) ;
#112 = DIRECTION ( 'NONE',  ( -3.491481338843133355E-15, 1.224646799147353207E-16, -1.000000000000000000 ) ) ;
#113 = EDGE_LOOP ( 'NONE', ( #132 ) ) ;
#114 = MANIFOLD_SOLID_BREP ( 'Corps-Déplacer/Copier1[2]', #178 ) ;
#115 = CARTESIAN_POINT ( 'NONE',  ( 4.189777606611760026E-14, -1.469576158976823947E-15, 12.00000000000000000 ) ) ;
#116 = PERSON_AND_ORGANIZATION_ROLE ( 'creator' ) ;
#117 = AXIS2_PLACEMENT_3D ( 'NONE', #186, #11, #106 ) ;
#118 = CIRCLE ( 'NONE', #172, 1.999999999999994005 ) ;
#119 = FACE_OUTER_BOUND ( 'NONE', #200, .T. ) ;
#120 = CARTESIAN_POINT ( 'NONE',  ( 0.0000000000000000000, 0.0000000000000000000, 0.0000000000000000000 ) ) ;
#121 = PERSON_AND_ORGANIZATION ( #52, #171 ) ;
#122 = ORIENTED_EDGE ( 'NONE', *, *, #144, .T. ) ;
#123 = SECURITY_CLASSIFICATION ( '', '', #86 ) ;
#124 = FACE_OUTER_BOUND ( 'NONE', #41, .T. ) ;
#125 = PRODUCT_DEFINITION ( 'UNKNOWN', '', #198, #98 ) ;
#126 = APPROVAL_DATE_TIME ( #65, #55 ) ;
#127 = ORIENTED_EDGE ( 'NONE', *, *, #160, .F. ) ;
#128 = AXIS2_PLACEMENT_3D ( 'NONE', #25, #133, #175 ) ;
#129 = ADVANCED_FACE ( 'NONE', ( #103 ), #167, .T. ) ;
#130 = AXIS2_PLACEMENT_3D ( 'NONE', #115, #195, #177 ) ;
#131 = APPROVAL ( #153, 'UNSPECIFIED' ) ;
#132 = ORIENTED_EDGE ( 'NONE', *, *, #144, .F. ) ;
#133 = DIRECTION ( 'NONE',  ( -3.491481338843133355E-15, 1.224646799147353207E-16, -1.000000000000000000 ) ) ;
#134 = CC_DESIGN_SECURITY_CLASSIFICATION ( #123, ( #198 ) ) ;
#135 = PERSON_AND_ORGANIZATION_ROLE ( 'classification_officer' ) ;
#136 = CYLINDRICAL_SURFACE ( 'NONE', #35, 1.999999999999998224 ) ;
#137 = CARTESIAN_POINT ( 'NONE',  ( 1.069053792562853011E-31, 1.999999999999994005, 3.061891755426287241E-17 ) ) ;
#138 = CIRCLE ( 'NONE', #57, 2.000000000000001332 ) ;
#139 = SHAPE_DEFINITION_REPRESENTATION ( #18, #33 ) ;
#140 = AXIS2_PLACEMENT_3D ( 'NONE', #34, #158, #97 ) ;
#141 = APPROVAL_STATUS ( 'not_yet_approved' ) ;
#142 = MECHANICAL_CONTEXT ( 'NONE', #156, 'mechanical' ) ;
#143 = CLOSED_SHELL ( 'NONE', ( #13, #165, #84, #8 ) ) ;
#144 = EDGE_CURVE ( 'NONE', #152, #152, #1, .T. ) ;
#145 = AXIS2_PLACEMENT_3D ( 'NONE', #154, #112, #75 ) ;
#146 = CC_DESIGN_PERSON_AND_ORGANIZATION_ASSIGNMENT ( #121, #47, ( #125 ) ) ;
#147 = DATE_TIME_ROLE ( 'classification_date' ) ;
#148 = PERSON_AND_ORGANIZATION ( #52, #171 ) ;
#149 = DIRECTION ( 'NONE',  ( 4.275831445896957731E-31, 1.000000000000000000, 1.224646799147353207E-16 ) ) ;
#150 = COORDINATED_UNIVERSAL_TIME_OFFSET ( 1, 0, .AHEAD. ) ;
#151 = DIRECTION ( 'NONE',  ( 4.275831445896959482E-31, 1.000000000000000000, 1.224646799147353207E-16 ) ) ;
#152 = VERTEX_POINT ( 'NONE', #197 ) ;
#153 = APPROVAL_STATUS ( 'not_yet_approved' ) ;
#154 = CARTESIAN_POINT ( 'NONE',  ( 2.094888803305880013E-13, -7.347880794884118356E-15, 60.00000000000000000 ) ) ;
#155 = APPROVAL ( #141, 'UNSPECIFIED' ) ;
#156 = APPLICATION_CONTEXT ( 'configuration controlled 3d designs of mechanical parts and assemblies' ) ;
#157 = PERSON_AND_ORGANIZATION ( #52, #171 ) ;
#158 = DIRECTION ( 'NONE',  ( -3.491481338843133355E-15, 1.224646799147353207E-16, -1.000000000000000000 ) ) ;
#159 = APPLICATION_CONTEXT ( 'configuration controlled 3d designs of mechanical parts and assemblies' ) ;
#160 = EDGE_CURVE ( 'NONE', #99, #99, #138, .T. ) ;
#161 = VERTEX_POINT ( 'NONE', #91 ) ;
#162 = LOCAL_TIME ( 10, 33, 26.00000000000000000, #150 ) ;
#163 = DIRECTION ( 'NONE',  ( 0.0000000000000000000, 1.000000000000000000, 0.0000000000000000000 ) ) ;
#164 = DIRECTION ( 'NONE',  ( 0.0000000000000000000, 1.000000000000000000, 0.0000000000000000000 ) ) ;
#165 = ADVANCED_FACE ( 'NONE', ( #10, #22 ), #136, .T. ) ;
#166 = FACE_OUTER_BOUND ( 'NONE', #168, .T. ) ;
#167 = PLANE ( 'NONE',  #189 ) ;
#168 = EDGE_LOOP ( 'NONE', ( #67 ) ) ;
#169 = PERSON_AND_ORGANIZATION ( #52, #171 ) ;
#170 =( NAMED_UNIT ( * ) PLANE_ANGLE_UNIT ( ) SI_UNIT ( $, .RADIAN. ) );
#171 = ORGANIZATION ( 'UNSPECIFIED', 'UNSPECIFIED', '' ) ;
#172 = AXIS2_PLACEMENT_3D ( 'NONE', #45, #100, #151 ) ;
#173 = PERSON_AND_ORGANIZATION ( #52, #171 ) ;
#174 = DIRECTION ( 'NONE',  ( 3.491481338843133355E-15, -1.224646799147353207E-16, 1.000000000000000000 ) ) ;
#175 = DIRECTION ( 'NONE',  ( 4.275831445896958607E-31, 1.000000000000000000, 1.224646799147353207E-16 ) ) ;
#176 = DIRECTION ( 'NONE',  ( -4.275831445896958607E-31, -1.000000000000000000, -1.224646799147353207E-16 ) ) ;
#177 = DIRECTION ( 'NONE',  ( 0.0000000000000000000, 1.000000000000000000, 0.0000000000000000000 ) ) ;
#178 = CLOSED_SHELL ( 'NONE', ( #70, #188, #129 ) ) ;
#179 = EDGE_LOOP ( 'NONE', ( #28 ) ) ;
#180 = CIRCLE ( 'NONE', #130, 1.999999999999995337 ) ;
#181 = ORIENTED_EDGE ( 'NONE', *, *, #74, .T. ) ;
#182 = PLANE ( 'NONE',  #117 ) ;
#183 =( LENGTH_UNIT ( ) NAMED_UNIT ( * ) SI_UNIT ( .MILLI., .METRE. ) );
#184 = ORIENTED_EDGE ( 'NONE', *, *, #160, .T. ) ;
#185 = COORDINATED_UNIVERSAL_TIME_OFFSET ( 1, 0, .AHEAD. ) ;
#186 = CARTESIAN_POINT ( 'NONE',  ( 2.094888803305880013E-13, 1.199807826129476233E-32, 60.00000000000000000 ) ) ;
#187 = LOCAL_TIME ( 10, 33, 26.00000000000000000, #190 ) ;
#188 = ADVANCED_FACE ( 'NONE', ( #166, #119 ), #4, .T. ) ;
#189 = AXIS2_PLACEMENT_3D ( 'NONE', #2, #174, #27 ) ;
#190 = COORDINATED_UNIVERSAL_TIME_OFFSET ( 1, 0, .AHEAD. ) ;
#191 = FACE_OUTER_BOUND ( 'NONE', #59, .T. ) ;
#192 = APPROVAL_DATE_TIME ( #72, #131 ) ;
#193 = VERTEX_POINT ( 'NONE', #137 ) ;
#194 = ORIENTED_EDGE ( 'NONE', *, *, #95, .T. ) ;
#195 = DIRECTION ( 'NONE',  ( -3.491481338843133355E-15, 1.224646799147353207E-16, -1.000000000000000000 ) ) ;
#196 = CC_DESIGN_PERSON_AND_ORGANIZATION_ASSIGNMENT ( #157, #12, ( #40 ) ) ;
#197 = CARTESIAN_POINT ( 'NONE',  ( 4.189777606611760026E-14, 1.999999999999994005, 12.00000000000000000 ) ) ;
#198 = PRODUCT_DEFINITION_FORMATION_WITH_SPECIFIED_SOURCE ( 'ANY', '', #40, .NOT_KNOWN. ) ;
#199 = ORIENTED_EDGE ( 'NONE', *, *, #74, .F. ) ;
#200 = EDGE_LOOP ( 'NONE', ( #181 ) ) ;
#201 = APPROVAL_ROLE ( '' ) ;
#202 = CC_DESIGN_DATE_AND_TIME_ASSIGNMENT ( #26, #147, ( #123 ) ) ;
#203 = CC_DESIGN_APPROVAL ( #155, ( #198 ) ) ;
ENDSEC;
END-ISO-10303-21;
