ISO-10303-21;
HEADER;
FILE_DESCRIPTION (( 'STEP AP203' ),
    '1' );
FILE_NAME ('372653.step',
    '2021-12-08T09:33:26',
    ( '' ),
    ( '' ),
    'SwSTEP 2.0',
    'SolidWorks 2019',
    '' );
FILE_SCHEMA (( 'CONFIG_CONTROL_DESIGN' ));
ENDSEC;

DATA;
#1 = CARTESIAN_POINT ( 'NONE',  ( 4.189777606611760026E-14, -1.469576158976823947E-15, 12.00000000000000000 ) ) ;
#2 = LOCAL_TIME ( 10, 33, 26.00000000000000000, #37 ) ;
#3 = DIRECTION ( 'NONE',  ( 3.491481338843133355E-15, -1.224646799147353207E-16, 1.000000000000000000 ) ) ;
#4 = CARTESIAN_POINT ( 'NONE',  ( 1.745740669421566678E-13, -6.123233995736766085E-15, 50.00000000000000000 ) ) ;
#5 = PERSON_AND_ORGANIZATION ( #164, #29 ) ;
#6 = FACE_OUTER_BOUND ( 'NONE', #202, .T. ) ;
#7 = EDGE_CURVE ( 'NONE', #199, #199, #196, .T. ) ;
#8 = APPROVAL_STATUS ( 'not_yet_approved' ) ;
#9 = APPROVAL_DATE_TIME ( #190, #104 ) ;
#10 = APPROVAL ( #131, 'UNSPECIFIED' ) ;
#11 = DIRECTION ( 'NONE',  ( -3.491481338843133355E-15, 1.224646799147353207E-16, -1.000000000000000000 ) ) ;
#12 = CIRCLE ( 'NONE', #129, 1.599999999999998757 ) ;
#13 = CYLINDRICAL_SURFACE ( 'NONE', #43, 1.999999999999994449 ) ;
#14 = CARTESIAN_POINT ( 'NONE',  ( -3.741334362112787385E-31, 1.312283442597337836E-32, -1.071560750014617016E-16 ) ) ;
#15 = DIRECTION ( 'NONE',  ( 3.491481338843133355E-15, -1.224646799147353207E-16, 1.000000000000000000 ) ) ;
#16 = CALENDAR_DATE ( 2021, 8, 12 ) ;
#17 =( GEOMETRIC_REPRESENTATION_CONTEXT ( 3 ) GLOBAL_UNCERTAINTY_ASSIGNED_CONTEXT ( ( #30 ) ) GLOBAL_UNIT_ASSIGNED_CONTEXT ( ( #142, #89, #203 ) ) REPRESENTATION_CONTEXT ( 'NONE', 'WORKASPACE' ) );
#18 = DATE_TIME_ROLE ( 'classification_date' ) ;
#19 = PRODUCT_DEFINITION_SHAPE ( 'NONE', 'NONE',  #139 ) ;
#20 = SHAPE_DEFINITION_REPRESENTATION ( #19, #95 ) ;
#21 = ADVANCED_FACE ( 'NONE', ( #152, #194 ), #36, .T. ) ;
#22 = AXIS2_PLACEMENT_3D ( 'NONE', #14, #78, #148 ) ;
#23 = AXIS2_PLACEMENT_3D ( 'NONE', #191, #165, #38 ) ;
#24 = DIRECTION ( 'NONE',  ( 4.275831445896959482E-31, 1.000000000000000000, 1.224646799147353207E-16 ) ) ;
#25 = VERTEX_POINT ( 'NONE', #87 ) ;
#26 = ORIENTED_EDGE ( 'NONE', *, *, #166, .F. ) ;
#27 = ORIENTED_EDGE ( 'NONE', *, *, #166, .T. ) ;
#28 = AXIS2_PLACEMENT_3D ( 'NONE', #111, #55, #90 ) ;
#29 = ORGANIZATION ( 'UNSPECIFIED', 'UNSPECIFIED', '' ) ;
#30 = UNCERTAINTY_MEASURE_WITH_UNIT (LENGTH_MEASURE( 1.000000000000000082E-05 ), #142, 'distance_accuracy_value', 'NONE');
#31 = AXIS2_PLACEMENT_3D ( 'NONE', #91, #15, #149 ) ;
#32 = PLANE ( 'NONE',  #31 ) ;
#33 = DATE_TIME_ROLE ( 'creation_date' ) ;
#34 = FACE_OUTER_BOUND ( 'NONE', #46, .T. ) ;
#35 = PERSON_AND_ORGANIZATION ( #164, #29 ) ;
#36 = CYLINDRICAL_SURFACE ( 'NONE', #23, 1.999999999999996669 ) ;
#37 = COORDINATED_UNIVERSAL_TIME_OFFSET ( 1, 0, .AHEAD. ) ;
#38 = DIRECTION ( 'NONE',  ( 4.275831445896958607E-31, 1.000000000000000000, 1.224646799147353207E-16 ) ) ;
#39 = AXIS2_PLACEMENT_3D ( 'NONE', #163, #100, #45 ) ;
#40 = APPROVAL_ROLE ( '' ) ;
#41 = ADVANCED_FACE ( 'NONE', ( #6 ), #92, .F. ) ;
#42 = MECHANICAL_CONTEXT ( 'NONE', #197, 'mechanical' ) ;
#43 = AXIS2_PLACEMENT_3D ( 'NONE', #157, #57, #24 ) ;
#44 = CARTESIAN_POINT ( 'NONE',  ( 4.189777606611760026E-14, 1.999999999999993561, 12.00000000000000000 ) ) ;
#45 = DIRECTION ( 'NONE',  ( 0.0000000000000000000, 1.000000000000000000, 0.0000000000000000000 ) ) ;
#46 = EDGE_LOOP ( 'NONE', ( #61 ) ) ;
#47 = CC_DESIGN_DATE_AND_TIME_ASSIGNMENT ( #65, #18, ( #86 ) ) ;
#48 = EDGE_LOOP ( 'NONE', ( #27 ) ) ;
#49 = DESIGN_CONTEXT ( 'detailed design', #124, 'design' ) ;
#50 = DIRECTION ( 'NONE',  ( -4.275831445896958607E-31, -1.000000000000000000, -1.224646799147353207E-16 ) ) ;
#51 = PERSON_AND_ORGANIZATION ( #164, #29 ) ;
#52 = DIRECTION ( 'NONE',  ( -3.491481338843133355E-15, 1.224646799147353207E-16, -1.000000000000000000 ) ) ;
#53 = CALENDAR_DATE ( 2021, 8, 12 ) ;
#54 = PERSON_AND_ORGANIZATION_ROLE ( 'creator' ) ;
#55 = DIRECTION ( 'NONE',  ( -3.491481338843133355E-15, 1.224646799147353207E-16, -1.000000000000000000 ) ) ;
#56 = PERSON_AND_ORGANIZATION ( #164, #29 ) ;
#57 = DIRECTION ( 'NONE',  ( -3.491481338843133355E-15, 1.224646799147353207E-16, -1.000000000000000000 ) ) ;
#58 = LOCAL_TIME ( 10, 33, 26.00000000000000000, #155 ) ;
#59 = CARTESIAN_POINT ( 'NONE',  ( 1.068994167568317264E-31, 1.999999999999994005, 3.061720982654649255E-17 ) ) ;
#60 = CARTESIAN_POINT ( 'NONE',  ( 4.189777606611760026E-14, 1.999999999999993561, 12.00000000000000000 ) ) ;
#61 = ORIENTED_EDGE ( 'NONE', *, *, #74, .T. ) ;
#62 = AXIS2_PLACEMENT_3D ( 'NONE', #73, #71, #198 ) ;
#63 = DIRECTION ( 'NONE',  ( -3.491481338843133355E-15, 1.224646799147353207E-16, -1.000000000000000000 ) ) ;
#64 = PERSON_AND_ORGANIZATION ( #164, #29 ) ;
#65 = DATE_AND_TIME ( #53, #2 ) ;
#66 = LOCAL_TIME ( 10, 33, 26.00000000000000000, #168 ) ;
#67 = PERSON_AND_ORGANIZATION_ROLE ( 'design_owner' ) ;
#68 = PERSON_AND_ORGANIZATION_ROLE ( 'creator' ) ;
#69 = CLOSED_SHELL ( 'NONE', ( #108, #21, #174, #187 ) ) ;
#70 = DIRECTION ( 'NONE',  ( 4.275831445896958607E-31, 1.000000000000000000, 1.224646799147353207E-16 ) ) ;
#71 = DIRECTION ( 'NONE',  ( -3.491481338843133355E-15, 1.224646799147353207E-16, -1.000000000000000000 ) ) ;
#72 = VERTEX_POINT ( 'NONE', #60 ) ;
#73 = CARTESIAN_POINT ( 'NONE',  ( 4.189777606611760026E-14, -1.469576158976823947E-15, 12.00000000000000000 ) ) ;
#74 = EDGE_CURVE ( 'NONE', #182, #182, #144, .T. ) ;
#75 = EDGE_LOOP ( 'NONE', ( #162 ) ) ;
#76 = CC_DESIGN_APPROVAL ( #104, ( #130 ) ) ;
#77 = ADVANCED_FACE ( 'NONE', ( #176 ), #80, .T. ) ;
#78 = DIRECTION ( 'NONE',  ( 3.491481338843133355E-15, -1.224646799147353207E-16, 1.000000000000000000 ) ) ;
#79 = CC_DESIGN_APPROVAL ( #10, ( #86 ) ) ;
#80 = PLANE ( 'NONE',  #151 ) ;
#81 = DIRECTION ( 'NONE',  ( 1.000000000000000000, 0.0000000000000000000, 0.0000000000000000000 ) ) ;
#82 = PRODUCT ( '372653', '372653', '', ( #42 ) ) ;
#83 = CALENDAR_DATE ( 2021, 8, 12 ) ;
#84 = DIRECTION ( 'NONE',  ( 0.0000000000000000000, 0.0000000000000000000, 1.000000000000000000 ) ) ;
#85 = APPROVAL_STATUS ( 'not_yet_approved' ) ;
#86 = SECURITY_CLASSIFICATION ( '', '', #181 ) ;
#87 = CARTESIAN_POINT ( 'NONE',  ( 1.731774744066194397E-13, 1.999999999999992673, 49.60000000000000853 ) ) ;
#88 = EDGE_LOOP ( 'NONE', ( #26 ) ) ;
#89 =( NAMED_UNIT ( * ) PLANE_ANGLE_UNIT ( ) SI_UNIT ( $, .RADIAN. ) );
#90 = DIRECTION ( 'NONE',  ( 4.275831445896959482E-31, 1.000000000000000000, 1.224646799147353207E-16 ) ) ;
#91 = CARTESIAN_POINT ( 'NONE',  ( 4.189777606611760026E-14, 1.499759782661852134E-32, 12.00000000000000000 ) ) ;
#92 = PLANE ( 'NONE',  #22 ) ;
#93 = APPLICATION_PROTOCOL_DEFINITION ( 'international standard', 'config_control_design', 1994, #124 ) ;
#94 = CC_DESIGN_PERSON_AND_ORGANIZATION_ASSIGNMENT ( #195, #68, ( #130 ) ) ;
#95 = ADVANCED_BREP_SHAPE_REPRESENTATION ( '372653', ( #185, #112, #141 ), #17 ) ;
#96 = DATE_AND_TIME ( #135, #66 ) ;
#97 = CALENDAR_DATE ( 2021, 8, 12 ) ;
#98 = CARTESIAN_POINT ( 'NONE',  ( 1.745740669421566678E-13, -6.123233995736766085E-15, 50.00000000000000000 ) ) ;
#99 = CARTESIAN_POINT ( 'NONE',  ( 1.745740669421566678E-13, 1.599999999999992761, 50.00000000000000000 ) ) ;
#100 = DIRECTION ( 'NONE',  ( -3.491481338843133355E-15, 1.224646799147353207E-16, -1.000000000000000000 ) ) ;
#101 = ORIENTED_EDGE ( 'NONE', *, *, #7, .T. ) ;
#102 = CC_DESIGN_APPROVAL ( #177, ( #139 ) ) ;
#103 = ORIENTED_EDGE ( 'NONE', *, *, #118, .T. ) ;
#104 = APPROVAL ( #85, 'UNSPECIFIED' ) ;
#105 = EDGE_LOOP ( 'NONE', ( #103 ) ) ;
#106 = COORDINATED_UNIVERSAL_TIME_OFFSET ( 1, 0, .AHEAD. ) ;
#107 = DIRECTION ( 'NONE',  ( 0.0000000000000000000, 1.000000000000000000, 0.0000000000000000000 ) ) ;
#108 = ADVANCED_FACE ( 'NONE', ( #126 ), #32, .F. ) ;
#109 = COORDINATED_UNIVERSAL_TIME_OFFSET ( 1, 0, .AHEAD. ) ;
#110 = PERSON_AND_ORGANIZATION ( #164, #29 ) ;
#111 = CARTESIAN_POINT ( 'NONE',  ( -7.482668724225574770E-31, 2.624566885194675672E-32, -2.143121500029234032E-16 ) ) ;
#112 = MANIFOLD_SOLID_BREP ( 'Corps-Déplacer/Copier1[2]', #183 ) ;
#113 = APPLICATION_PROTOCOL_DEFINITION ( 'international standard', 'config_control_design', 1994, #197 ) ;
#114 = APPROVAL_PERSON_ORGANIZATION ( #156, #177, #132 ) ;
#115 = DATE_AND_TIME ( #83, #58 ) ;
#116 = FACE_OUTER_BOUND ( 'NONE', #88, .T. ) ;
#117 = DIRECTION ( 'NONE',  ( 0.0000000000000000000, 1.000000000000000000, 0.0000000000000000000 ) ) ;
#118 = EDGE_CURVE ( 'NONE', #159, #159, #12, .T. ) ;
#119 = AXIS2_PLACEMENT_3D ( 'NONE', #1, #63, #125 ) ;
#120 = AXIS2_PLACEMENT_3D ( 'NONE', #200, #11, #70 ) ;
#121 = ORIENTED_EDGE ( 'NONE', *, *, #169, .F. ) ;
#122 = CC_DESIGN_PERSON_AND_ORGANIZATION_ASSIGNMENT ( #56, #67, ( #82 ) ) ;
#123 = ORIENTED_EDGE ( 'NONE', *, *, #7, .F. ) ;
#124 = APPLICATION_CONTEXT ( 'configuration controlled 3d designs of mechanical parts and assemblies' ) ;
#125 = DIRECTION ( 'NONE',  ( 0.0000000000000000000, 1.000000000000000000, 0.0000000000000000000 ) ) ;
#126 = FACE_OUTER_BOUND ( 'NONE', #75, .T. ) ;
#127 = APPROVAL_ROLE ( '' ) ;
#128 = ORIENTED_EDGE ( 'NONE', *, *, #118, .F. ) ;
#129 = AXIS2_PLACEMENT_3D ( 'NONE', #4, #52, #107 ) ;
#130 = PRODUCT_DEFINITION_FORMATION_WITH_SPECIFIED_SOURCE ( 'ANY', '', #82, .NOT_KNOWN. ) ;
#131 = APPROVAL_STATUS ( 'not_yet_approved' ) ;
#132 = APPROVAL_ROLE ( '' ) ;
#133 = ORIENTED_EDGE ( 'NONE', *, *, #74, .F. ) ;
#134 = PERSON_AND_ORGANIZATION_ROLE ( 'design_supplier' ) ;
#135 = CALENDAR_DATE ( 2021, 8, 12 ) ;
#136 = CC_DESIGN_DATE_AND_TIME_ASSIGNMENT ( #115, #33, ( #139 ) ) ;
#137 = LOCAL_TIME ( 10, 33, 26.00000000000000000, #106 ) ;
#138 = FACE_BOUND ( 'NONE', #105, .T. ) ;
#139 = PRODUCT_DEFINITION ( 'UNKNOWN', '', #130, #49 ) ;
#140 = FACE_OUTER_BOUND ( 'NONE', #147, .T. ) ;
#141 = AXIS2_PLACEMENT_3D ( 'NONE', #167, #84, #81 ) ;
#142 =( LENGTH_UNIT ( ) NAMED_UNIT ( * ) SI_UNIT ( .MILLI., .METRE. ) );
#143 = PRODUCT_RELATED_PRODUCT_CATEGORY ( 'detail', '', ( #82 ) ) ;
#144 = CIRCLE ( 'NONE', #119, 1.999999999999994893 ) ;
#145 = EDGE_LOOP ( 'NONE', ( #123 ) ) ;
#146 = CONICAL_SURFACE ( 'NONE', #184, 1.599999999999998757, 0.7853981633974512766 ) ;
#147 = EDGE_LOOP ( 'NONE', ( #128 ) ) ;
#148 = DIRECTION ( 'NONE',  ( -4.275831445896958607E-31, -1.000000000000000000, -1.224646799147353207E-16 ) ) ;
#149 = DIRECTION ( 'NONE',  ( -4.275831445896958607E-31, -1.000000000000000000, -1.224646799147353207E-16 ) ) ;
#150 = EDGE_LOOP ( 'NONE', ( #121 ) ) ;
#151 = AXIS2_PLACEMENT_3D ( 'NONE', #189, #3, #50 ) ;
#152 = FACE_OUTER_BOUND ( 'NONE', #150, .T. ) ;
#153 = PERSON_AND_ORGANIZATION_ROLE ( 'classification_officer' ) ;
#154 = ADVANCED_FACE ( 'NONE', ( #179, #34 ), #13, .T. ) ;
#155 = COORDINATED_UNIVERSAL_TIME_OFFSET ( 1, 0, .AHEAD. ) ;
#156 = PERSON_AND_ORGANIZATION ( #164, #29 ) ;
#157 = CARTESIAN_POINT ( 'NONE',  ( 0.0000000000000000000, 0.0000000000000000000, 0.0000000000000000000 ) ) ;
#158 = CC_DESIGN_PERSON_AND_ORGANIZATION_ASSIGNMENT ( #64, #54, ( #139 ) ) ;
#159 = VERTEX_POINT ( 'NONE', #99 ) ;
#160 = CIRCLE ( 'NONE', #62, 1.999999999999994893 ) ;
#161 = APPROVAL_PERSON_ORGANIZATION ( #110, #104, #127 ) ;
#162 = ORIENTED_EDGE ( 'NONE', *, *, #169, .T. ) ;
#163 = CARTESIAN_POINT ( 'NONE',  ( 1.731774744066194397E-13, -6.074248123770872657E-15, 49.60000000000000853 ) ) ;
#164 = PERSON ( 'UNSPECIFIED', 'UNSPECIFIED', 'UNSPECIFIED', ('UNSPECIFIED'), ('UNSPECIFIED'), ('UNSPECIFIED') ) ;
#165 = DIRECTION ( 'NONE',  ( -3.491481338843133355E-15, 1.224646799147353207E-16, -1.000000000000000000 ) ) ;
#166 = EDGE_CURVE ( 'NONE', #25, #25, #172, .T. ) ;
#167 = CARTESIAN_POINT ( 'NONE',  ( 0.0000000000000000000, 0.0000000000000000000, 0.0000000000000000000 ) ) ;
#168 = COORDINATED_UNIVERSAL_TIME_OFFSET ( 1, 0, .AHEAD. ) ;
#169 = EDGE_CURVE ( 'NONE', #72, #72, #160, .T. ) ;
#170 = APPROVAL_DATE_TIME ( #193, #177 ) ;
#171 = PLANE ( 'NONE',  #120 ) ;
#172 = CIRCLE ( 'NONE', #39, 1.999999999999998668 ) ;
#173 = CC_DESIGN_PERSON_AND_ORGANIZATION_ASSIGNMENT ( #35, #134, ( #130 ) ) ;
#174 = ADVANCED_FACE ( 'NONE', ( #116, #138 ), #146, .T. ) ;
#175 = APPROVAL_PERSON_ORGANIZATION ( #51, #10, #40 ) ;
#176 = FACE_OUTER_BOUND ( 'NONE', #186, .T. ) ;
#177 = APPROVAL ( #8, 'UNSPECIFIED' ) ;
#178 = LOCAL_TIME ( 10, 33, 26.00000000000000000, #109 ) ;
#179 = FACE_OUTER_BOUND ( 'NONE', #145, .T. ) ;
#180 = CC_DESIGN_SECURITY_CLASSIFICATION ( #86, ( #130 ) ) ;
#181 = SECURITY_CLASSIFICATION_LEVEL ( 'unclassified' ) ;
#182 = VERTEX_POINT ( 'NONE', #44 ) ;
#183 = CLOSED_SHELL ( 'NONE', ( #41, #154, #77 ) ) ;
#184 = AXIS2_PLACEMENT_3D ( 'NONE', #98, #201, #117 ) ;
#185 = MANIFOLD_SOLID_BREP ( 'Corps-Déplacer/Copier1[1]', #69 ) ;
#186 = EDGE_LOOP ( 'NONE', ( #133 ) ) ;
#187 = ADVANCED_FACE ( 'NONE', ( #140 ), #171, .F. ) ;
#188 = CC_DESIGN_PERSON_AND_ORGANIZATION_ASSIGNMENT ( #5, #153, ( #86 ) ) ;
#189 = CARTESIAN_POINT ( 'NONE',  ( 4.189777606611760026E-14, 1.499759782661852134E-32, 12.00000000000000000 ) ) ;
#190 = DATE_AND_TIME ( #16, #137 ) ;
#191 = CARTESIAN_POINT ( 'NONE',  ( 0.0000000000000000000, 0.0000000000000000000, 0.0000000000000000000 ) ) ;
#192 = APPROVAL_DATE_TIME ( #96, #10 ) ;
#193 = DATE_AND_TIME ( #97, #178 ) ;
#194 = FACE_OUTER_BOUND ( 'NONE', #48, .T. ) ;
#195 = PERSON_AND_ORGANIZATION ( #164, #29 ) ;
#196 = CIRCLE ( 'NONE', #28, 1.999999999999994005 ) ;
#197 = APPLICATION_CONTEXT ( 'configuration controlled 3d designs of mechanical parts and assemblies' ) ;
#198 = DIRECTION ( 'NONE',  ( 0.0000000000000000000, 1.000000000000000000, 0.0000000000000000000 ) ) ;
#199 = VERTEX_POINT ( 'NONE', #59 ) ;
#200 = CARTESIAN_POINT ( 'NONE',  ( 1.745740669421566678E-13, 1.199807826129476233E-32, 50.00000000000000000 ) ) ;
#201 = DIRECTION ( 'NONE',  ( -3.491481338843133355E-15, 1.224646799147353207E-16, -1.000000000000000000 ) ) ;
#202 = EDGE_LOOP ( 'NONE', ( #101 ) ) ;
#203 =( NAMED_UNIT ( * ) SI_UNIT ( $, .STERADIAN. ) SOLID_ANGLE_UNIT ( ) );
ENDSEC;
END-ISO-10303-21;
