ISO-10303-21;
HEADER;
FILE_DESCRIPTION (( 'STEP AP203' ),
    '1' );
FILE_NAME ('372652.step',
    '2021-12-08T09:33:25',
    ( '' ),
    ( '' ),
    'SwSTEP 2.0',
    'SolidWorks 2019',
    '' );
FILE_SCHEMA (( 'CONFIG_CONTROL_DESIGN' ));
ENDSEC;

DATA;
#1 = ORIENTED_EDGE ( 'NONE', *, *, #107, .T. ) ;
#2 = CARTESIAN_POINT ( 'NONE',  ( -6.413839710158237013E-31, 0.0000000000000000000, -1.836996703606440502E-16 ) ) ;
#3 = AXIS2_PLACEMENT_3D ( 'NONE', #91, #75, #204 ) ;
#4 = ORIENTED_EDGE ( 'NONE', *, *, #107, .F. ) ;
#5 = DIRECTION ( 'NONE',  ( 1.000000000000000000, 0.0000000000000000000, 0.0000000000000000000 ) ) ;
#6 = CYLINDRICAL_SURFACE ( 'NONE', #46, 1.749999999999998002 ) ;
#7 = LOCAL_TIME ( 10, 33, 25.00000000000000000, #13 ) ;
#8 = DIRECTION ( 'NONE',  ( 0.0000000000000000000, 0.0000000000000000000, 1.000000000000000000 ) ) ;
#9 = DATE_AND_TIME ( #26, #61 ) ;
#10 = PERSON_AND_ORGANIZATION ( #175, #223 ) ;
#11 = PLANE ( 'NONE',  #115 ) ;
#12 = CLOSED_SHELL ( 'NONE', ( #149, #34, #144, #188, #25 ) ) ;
#13 = COORDINATED_UNIVERSAL_TIME_OFFSET ( 1, 0, .AHEAD. ) ;
#14 = CARTESIAN_POINT ( 'NONE',  ( -3.741304549615519511E-31, 1.312272985780929536E-32, -1.071552211376035147E-16 ) ) ;
#15 = CONICAL_SURFACE ( 'NONE', #72, 6.749999999999999112, 0.2617993877991501850 ) ;
#16 = ORIENTED_EDGE ( 'NONE', *, *, #111, .T. ) ;
#17 = ADVANCED_FACE ( 'NONE', ( #154, #65 ), #6, .T. ) ;
#18 = DIRECTION ( 'NONE',  ( 3.491481338843133355E-15, -1.224646799147353207E-16, 1.000000000000000000 ) ) ;
#19 = EDGE_CURVE ( 'NONE', #129, #129, #96, .T. ) ;
#20 = DIRECTION ( 'NONE',  ( 0.0000000000000000000, 1.000000000000000000, 0.0000000000000000000 ) ) ;
#21 = DIRECTION ( 'NONE',  ( 0.0000000000000000000, -1.000000000000000000, 0.0000000000000000000 ) ) ;
#22 = CC_DESIGN_SECURITY_CLASSIFICATION ( #50, ( #166 ) ) ;
#23 = PERSON_AND_ORGANIZATION_ROLE ( 'creator' ) ;
#24 = APPROVAL_DATE_TIME ( #192, #176 ) ;
#25 = ADVANCED_FACE ( 'NONE', ( #45 ), #120, .F. ) ;
#26 = CALENDAR_DATE ( 2021, 8, 12 ) ;
#27 = CIRCLE ( 'NONE', #164, 1.749999999999997558 ) ;
#28 = APPROVAL_PERSON_ORGANIZATION ( #44, #195, #104 ) ;
#29 = DIRECTION ( 'NONE',  ( -4.275831445896958607E-31, -1.000000000000000000, -1.224646799147353207E-16 ) ) ;
#30 = CYLINDRICAL_SURFACE ( 'NONE', #37, 1.999999999999998224 ) ;
#31 = DATE_AND_TIME ( #110, #85 ) ;
#32 = EDGE_LOOP ( 'NONE', ( #117 ) ) ;
#33 = CARTESIAN_POINT ( 'NONE',  ( 3.817240982599160822E-14, -1.999999999999999556, 10.93301270189221341 ) ) ;
#34 = ADVANCED_FACE ( 'NONE', ( #100, #152 ), #49, .T. ) ;
#35 = ORIENTED_EDGE ( 'NONE', *, *, #199, .T. ) ;
#36 = CLOSED_SHELL ( 'NONE', ( #55, #17, #67 ) ) ;
#37 = AXIS2_PLACEMENT_3D ( 'NONE', #203, #89, #109 ) ;
#38 = UNCERTAINTY_MEASURE_WITH_UNIT (LENGTH_MEASURE( 1.000000000000000082E-05 ), #58, 'distance_accuracy_value', 'NONE');
#39 = CIRCLE ( 'NONE', #134, 1.999999999999998224 ) ;
#40 = DIRECTION ( 'NONE',  ( 3.491481338843133355E-15, -1.224646799147353207E-16, 1.000000000000000000 ) ) ;
#41 = DIRECTION ( 'NONE',  ( -4.456761796588770537E-31, -1.000000000000000000, -1.276467311168695266E-16 ) ) ;
#42 = PERSON_AND_ORGANIZATION ( #175, #223 ) ;
#43 = DIRECTION ( 'NONE',  ( 3.491481338843133355E-15, -1.276467311168695266E-16, 1.000000000000000000 ) ) ;
#44 = PERSON_AND_ORGANIZATION ( #175, #223 ) ;
#45 = FACE_OUTER_BOUND ( 'NONE', #60, .T. ) ;
#46 = AXIS2_PLACEMENT_3D ( 'NONE', #2, #211, #41 ) ;
#47 = APPLICATION_PROTOCOL_DEFINITION ( 'international standard', 'config_control_design', 1994, #81 ) ;
#48 = APPROVAL_DATE_TIME ( #74, #86 ) ;
#49 = CONICAL_SURFACE ( 'NONE', #215, 1.600000000000001421, 0.7853981633974512766 ) ;
#50 = SECURITY_CLASSIFICATION ( '', '', #84 ) ;
#51 = FACE_OUTER_BOUND ( 'NONE', #98, .T. ) ;
#52 = DIRECTION ( 'NONE',  ( -3.491481338843133355E-15, 1.276467311168695266E-16, -1.000000000000000000 ) ) ;
#53 = CC_DESIGN_PERSON_AND_ORGANIZATION_ASSIGNMENT ( #212, #64, ( #157 ) ) ;
#54 = CARTESIAN_POINT ( 'NONE',  ( -6.332562274213637616E-32, -1.749999999999997558, -1.813717920747035212E-17 ) ) ;
#55 = ADVANCED_FACE ( 'NONE', ( #187 ), #210, .T. ) ;
#56 = DESIGN_CONTEXT ( 'detailed design', #145, 'design' ) ;
#57 = CARTESIAN_POINT ( 'NONE',  ( 3.491481338843133355E-14, 1.499759782661852408E-32, 10.00000000000000000 ) ) ;
#58 =( LENGTH_UNIT ( ) NAMED_UNIT ( * ) SI_UNIT ( .MILLI., .METRE. ) );
#59 = CIRCLE ( 'NONE', #194, 1.749999999999998446 ) ;
#60 = EDGE_LOOP ( 'NONE', ( #82 ) ) ;
#61 = LOCAL_TIME ( 10, 33, 25.00000000000000000, #103 ) ;
#62 = EDGE_CURVE ( 'NONE', #94, #94, #87, .T. ) ;
#63 =( NAMED_UNIT ( * ) SI_UNIT ( $, .STERADIAN. ) SOLID_ANGLE_UNIT ( ) );
#64 = PERSON_AND_ORGANIZATION_ROLE ( 'design_owner' ) ;
#65 = FACE_OUTER_BOUND ( 'NONE', #150, .T. ) ;
#66 = APPROVAL_DATE_TIME ( #191, #195 ) ;
#67 = ADVANCED_FACE ( 'NONE', ( #174 ), #179, .F. ) ;
#68 = PERSON_AND_ORGANIZATION_ROLE ( 'creator' ) ;
#69 = COORDINATED_UNIVERSAL_TIME_OFFSET ( 1, 0, .AHEAD. ) ;
#70 = APPROVAL_ROLE ( '' ) ;
#71 = DIRECTION ( 'NONE',  ( 3.491481338843133355E-15, -1.224646799147353207E-16, 1.000000000000000000 ) ) ;
#72 = AXIS2_PLACEMENT_3D ( 'NONE', #160, #124, #181 ) ;
#73 = FACE_OUTER_BOUND ( 'NONE', #78, .T. ) ;
#74 = DATE_AND_TIME ( #201, #7 ) ;
#75 = DIRECTION ( 'NONE',  ( -3.491481338843133355E-15, 1.224646799147353207E-16, -1.000000000000000000 ) ) ;
#76 = ORIENTED_EDGE ( 'NONE', *, *, #199, .F. ) ;
#77 = VERTEX_POINT ( 'NONE', #148 ) ;
#78 = EDGE_LOOP ( 'NONE', ( #35 ) ) ;
#79 = EDGE_LOOP ( 'NONE', ( #128 ) ) ;
#80 = AXIS2_PLACEMENT_3D ( 'NONE', #99, #18, #151 ) ;
#81 = APPLICATION_CONTEXT ( 'configuration controlled 3d designs of mechanical parts and assemblies' ) ;
#82 = ORIENTED_EDGE ( 'NONE', *, *, #125, .F. ) ;
#83 = CALENDAR_DATE ( 2021, 8, 12 ) ;
#84 = SECURITY_CLASSIFICATION_LEVEL ( 'unclassified' ) ;
#85 = LOCAL_TIME ( 10, 33, 25.00000000000000000, #69 ) ;
#86 = APPROVAL ( #88, 'UNSPECIFIED' ) ;
#87 = CIRCLE ( 'NONE', #205, 1.749999999999998446 ) ;
#88 = APPROVAL_STATUS ( 'not_yet_approved' ) ;
#89 = DIRECTION ( 'NONE',  ( -3.491481338843133355E-15, 1.224646799147353207E-16, -1.000000000000000000 ) ) ;
#90 = DIRECTION ( 'NONE',  ( 0.0000000000000000000, -1.000000000000000000, 0.0000000000000000000 ) ) ;
#91 = CARTESIAN_POINT ( 'NONE',  ( 2.080922877950507480E-13, -7.298894922918224927E-15, 59.60000000000000142 ) ) ;
#92 = CARTESIAN_POINT ( 'NONE',  ( 2.094888803305880013E-13, 1.199807826129476233E-32, 60.00000000000000000 ) ) ;
#93 = PRODUCT_RELATED_PRODUCT_CATEGORY ( 'detail', '', ( #157 ) ) ;
#94 = VERTEX_POINT ( 'NONE', #184 ) ;
#95 = EDGE_LOOP ( 'NONE', ( #16 ) ) ;
#96 = CIRCLE ( 'NONE', #182, 1.600000000000001421 ) ;
#97 = CC_DESIGN_APPROVAL ( #176, ( #166 ) ) ;
#98 = EDGE_LOOP ( 'NONE', ( #1 ) ) ;
#99 = CARTESIAN_POINT ( 'NONE',  ( 3.491481338843133355E-14, 1.499759782661852408E-32, 10.00000000000000000 ) ) ;
#100 = FACE_OUTER_BOUND ( 'NONE', #156, .T. ) ;
#101 = PERSON_AND_ORGANIZATION ( #175, #223 ) ;
#102 = CARTESIAN_POINT ( 'NONE',  ( 0.0000000000000000000, 0.0000000000000000000, 0.0000000000000000000 ) ) ;
#103 = COORDINATED_UNIVERSAL_TIME_OFFSET ( 1, 0, .AHEAD. ) ;
#104 = APPROVAL_ROLE ( '' ) ;
#105 = DATE_TIME_ROLE ( 'creation_date' ) ;
#106 =( GEOMETRIC_REPRESENTATION_CONTEXT ( 3 ) GLOBAL_UNCERTAINTY_ASSIGNED_CONTEXT ( ( #38 ) ) GLOBAL_UNIT_ASSIGNED_CONTEXT ( ( #58, #214, #63 ) ) REPRESENTATION_CONTEXT ( 'NONE', 'WORKASPACE' ) );
#107 = EDGE_CURVE ( 'NONE', #197, #197, #39, .T. ) ;
#108 = PRODUCT_DEFINITION_SHAPE ( 'NONE', 'NONE',  #202 ) ;
#109 = DIRECTION ( 'NONE',  ( 4.275831445896957731E-31, 1.000000000000000000, 1.224646799147353207E-16 ) ) ;
#110 = CALENDAR_DATE ( 2021, 8, 12 ) ;
#111 = EDGE_CURVE ( 'NONE', #163, #163, #27, .T. ) ;
#112 = CARTESIAN_POINT ( 'NONE',  ( 2.094888803305880013E-13, 1.599999999999994094, 60.00000000000000000 ) ) ;
#113 = CC_DESIGN_DATE_AND_TIME_ASSIGNMENT ( #9, #105, ( #202 ) ) ;
#114 = EDGE_LOOP ( 'NONE', ( #168 ) ) ;
#115 = AXIS2_PLACEMENT_3D ( 'NONE', #92, #220, #193 ) ;
#116 = ADVANCED_BREP_SHAPE_REPRESENTATION ( '372652', ( #180, #183, #185 ), #106 ) ;
#117 = ORIENTED_EDGE ( 'NONE', *, *, #125, .T. ) ;
#118 = DIRECTION ( 'NONE',  ( -4.275831445896958607E-31, -1.000000000000000000, -1.224646799147353207E-16 ) ) ;
#119 = MECHANICAL_CONTEXT ( 'NONE', #81, 'mechanical' ) ;
#120 = PLANE ( 'NONE',  #80 ) ;
#121 = CALENDAR_DATE ( 2021, 8, 12 ) ;
#122 = APPROVAL_ROLE ( '' ) ;
#123 = DIRECTION ( 'NONE',  ( 3.491481338843133355E-15, -1.276467311168695266E-16, 1.000000000000000000 ) ) ;
#124 = DIRECTION ( 'NONE',  ( 3.491481338843133355E-15, -1.276467311168695266E-16, 1.000000000000000000 ) ) ;
#125 = EDGE_CURVE ( 'NONE', #77, #77, #59, .T. ) ;
#126 = DIRECTION ( 'NONE',  ( 0.0000000000000000000, -1.000000000000000000, 0.0000000000000000000 ) ) ;
#127 = FACE_OUTER_BOUND ( 'NONE', #79, .T. ) ;
#128 = ORIENTED_EDGE ( 'NONE', *, *, #19, .F. ) ;
#129 = VERTEX_POINT ( 'NONE', #112 ) ;
#130 = APPROVAL_PERSON_ORGANIZATION ( #10, #86, #70 ) ;
#131 = EDGE_LOOP ( 'NONE', ( #165 ) ) ;
#132 = CC_DESIGN_PERSON_AND_ORGANIZATION_ASSIGNMENT ( #42, #23, ( #202 ) ) ;
#133 = CARTESIAN_POINT ( 'NONE',  ( 2.094888803305880013E-13, -7.347880794884118356E-15, 60.00000000000000000 ) ) ;
#134 = AXIS2_PLACEMENT_3D ( 'NONE', #186, #52, #90 ) ;
#135 = DIRECTION ( 'NONE',  ( 0.0000000000000000000, 1.000000000000000000, 0.0000000000000000000 ) ) ;
#136 = APPLICATION_PROTOCOL_DEFINITION ( 'international standard', 'config_control_design', 1994, #145 ) ;
#137 = APPROVAL_STATUS ( 'not_yet_approved' ) ;
#138 = DIRECTION ( 'NONE',  ( -3.491481338843133355E-15, 1.224646799147353207E-16, -1.000000000000000000 ) ) ;
#139 = PERSON_AND_ORGANIZATION ( #175, #223 ) ;
#140 = DIRECTION ( 'NONE',  ( 3.491481338843133355E-15, -1.276467311168695266E-16, 1.000000000000000000 ) ) ;
#141 = PERSON_AND_ORGANIZATION_ROLE ( 'classification_officer' ) ;
#142 = CC_DESIGN_APPROVAL ( #86, ( #50 ) ) ;
#143 = FACE_OUTER_BOUND ( 'NONE', #213, .T. ) ;
#144 = ADVANCED_FACE ( 'NONE', ( #127 ), #11, .F. ) ;
#145 = APPLICATION_CONTEXT ( 'configuration controlled 3d designs of mechanical parts and assemblies' ) ;
#146 = PERSON_AND_ORGANIZATION ( #175, #223 ) ;
#147 = AXIS2_PLACEMENT_3D ( 'NONE', #14, #71, #29 ) ;
#148 = CARTESIAN_POINT ( 'NONE',  ( 3.491481338843133355E-14, -1.749999999999999778, 10.00000000000000000 ) ) ;
#149 = ADVANCED_FACE ( 'NONE', ( #73, #143 ), #30, .T. ) ;
#150 = EDGE_LOOP ( 'NONE', ( #200 ) ) ;
#151 = DIRECTION ( 'NONE',  ( -4.275831445896958607E-31, -1.000000000000000000, -1.224646799147353207E-16 ) ) ;
#152 = FACE_BOUND ( 'NONE', #131, .T. ) ;
#153 = PERSON_AND_ORGANIZATION_ROLE ( 'design_supplier' ) ;
#154 = FACE_OUTER_BOUND ( 'NONE', #95, .T. ) ;
#155 = LOCAL_TIME ( 10, 33, 25.00000000000000000, #189 ) ;
#156 = EDGE_LOOP ( 'NONE', ( #76 ) ) ;
#157 = PRODUCT ( '372652', '372652', '', ( #119 ) ) ;
#158 = PERSON_AND_ORGANIZATION ( #175, #223 ) ;
#159 = CC_DESIGN_PERSON_AND_ORGANIZATION_ASSIGNMENT ( #101, #153, ( #166 ) ) ;
#160 = CARTESIAN_POINT ( 'NONE',  ( 1.000667421396370414E-13, -3.658387740909889804E-15, 28.66025403784433223 ) ) ;
#161 = CC_DESIGN_DATE_AND_TIME_ASSIGNMENT ( #31, #218, ( #50 ) ) ;
#162 = CARTESIAN_POINT ( 'NONE',  ( 7.166076916608974059E-31, -4.964746472970739823E-32, 2.052446002470510143E-16 ) ) ;
#163 = VERTEX_POINT ( 'NONE', #54 ) ;
#164 = AXIS2_PLACEMENT_3D ( 'NONE', #162, #140, #216 ) ;
#165 = ORIENTED_EDGE ( 'NONE', *, *, #19, .T. ) ;
#166 = PRODUCT_DEFINITION_FORMATION_WITH_SPECIFIED_SOURCE ( 'ANY', '', #157, .NOT_KNOWN. ) ;
#167 = CC_DESIGN_APPROVAL ( #195, ( #202 ) ) ;
#168 = ORIENTED_EDGE ( 'NONE', *, *, #111, .F. ) ;
#169 = ORIENTED_EDGE ( 'NONE', *, *, #62, .T. ) ;
#170 = CARTESIAN_POINT ( 'NONE',  ( 2.094888803305880013E-13, -7.347880794884118356E-15, 60.00000000000000000 ) ) ;
#171 = CARTESIAN_POINT ( 'NONE',  ( 3.491481338843133355E-14, -1.276467311168695364E-15, 10.00000000000000000 ) ) ;
#172 = EDGE_LOOP ( 'NONE', ( #169 ) ) ;
#173 = AXIS2_PLACEMENT_3D ( 'NONE', #57, #40, #118 ) ;
#174 = FACE_OUTER_BOUND ( 'NONE', #114, .T. ) ;
#175 = PERSON ( 'UNSPECIFIED', 'UNSPECIFIED', 'UNSPECIFIED', ('UNSPECIFIED'), ('UNSPECIFIED'), ('UNSPECIFIED') ) ;
#176 = APPROVAL ( #178, 'UNSPECIFIED' ) ;
#177 = COORDINATED_UNIVERSAL_TIME_OFFSET ( 1, 0, .AHEAD. ) ;
#178 = APPROVAL_STATUS ( 'not_yet_approved' ) ;
#179 = PLANE ( 'NONE',  #147 ) ;
#180 = MANIFOLD_SOLID_BREP ( 'Corps-Déplacer/Copier1[1]', #12 ) ;
#181 = DIRECTION ( 'NONE',  ( 0.0000000000000000000, -1.000000000000000000, 0.0000000000000000000 ) ) ;
#182 = AXIS2_PLACEMENT_3D ( 'NONE', #170, #138, #135 ) ;
#183 = MANIFOLD_SOLID_BREP ( 'Corps-Déplacer/Copier1[2]', #36 ) ;
#184 = CARTESIAN_POINT ( 'NONE',  ( 3.491481338843133355E-14, -1.749999999999999778, 10.00000000000000000 ) ) ;
#185 = AXIS2_PLACEMENT_3D ( 'NONE', #102, #8, #5 ) ;
#186 = CARTESIAN_POINT ( 'NONE',  ( 3.817240982599160822E-14, -1.395563332655754406E-15, 10.93301270189221341 ) ) ;
#187 = FACE_OUTER_BOUND ( 'NONE', #172, .T. ) ;
#188 = ADVANCED_FACE ( 'NONE', ( #217, #51 ), #15, .T. ) ;
#189 = COORDINATED_UNIVERSAL_TIME_OFFSET ( 1, 0, .AHEAD. ) ;
#190 = APPROVAL_PERSON_ORGANIZATION ( #139, #176, #122 ) ;
#191 = DATE_AND_TIME ( #121, #155 ) ;
#192 = DATE_AND_TIME ( #83, #196 ) ;
#193 = DIRECTION ( 'NONE',  ( 4.275831445896958607E-31, 1.000000000000000000, 1.224646799147353207E-16 ) ) ;
#194 = AXIS2_PLACEMENT_3D ( 'NONE', #219, #123, #126 ) ;
#195 = APPROVAL ( #137, 'UNSPECIFIED' ) ;
#196 = LOCAL_TIME ( 10, 33, 25.00000000000000000, #177 ) ;
#197 = VERTEX_POINT ( 'NONE', #33 ) ;
#198 = DIRECTION ( 'NONE',  ( -3.491481338843133355E-15, 1.224646799147353207E-16, -1.000000000000000000 ) ) ;
#199 = EDGE_CURVE ( 'NONE', #222, #222, #206, .T. ) ;
#200 = ORIENTED_EDGE ( 'NONE', *, *, #62, .F. ) ;
#201 = CALENDAR_DATE ( 2021, 8, 12 ) ;
#202 = PRODUCT_DEFINITION ( 'UNKNOWN', '', #166, #56 ) ;
#203 = CARTESIAN_POINT ( 'NONE',  ( 0.0000000000000000000, 0.0000000000000000000, 0.0000000000000000000 ) ) ;
#204 = DIRECTION ( 'NONE',  ( 0.0000000000000000000, 1.000000000000000000, 0.0000000000000000000 ) ) ;
#205 = AXIS2_PLACEMENT_3D ( 'NONE', #171, #43, #21 ) ;
#206 = CIRCLE ( 'NONE', #3, 2.000000000000001332 ) ;
#207 = CARTESIAN_POINT ( 'NONE',  ( 2.080922877950507480E-13, 1.999999999999994005, 59.60000000000000142 ) ) ;
#208 = CC_DESIGN_PERSON_AND_ORGANIZATION_ASSIGNMENT ( #146, #141, ( #50 ) ) ;
#209 = CC_DESIGN_PERSON_AND_ORGANIZATION_ASSIGNMENT ( #158, #68, ( #166 ) ) ;
#210 = PLANE ( 'NONE',  #173 ) ;
#211 = DIRECTION ( 'NONE',  ( 3.491481338843133355E-15, -1.276467311168695266E-16, 1.000000000000000000 ) ) ;
#212 = PERSON_AND_ORGANIZATION ( #175, #223 ) ;
#213 = EDGE_LOOP ( 'NONE', ( #4 ) ) ;
#214 =( NAMED_UNIT ( * ) PLANE_ANGLE_UNIT ( ) SI_UNIT ( $, .RADIAN. ) );
#215 = AXIS2_PLACEMENT_3D ( 'NONE', #133, #198, #20 ) ;
#216 = DIRECTION ( 'NONE',  ( -4.456761796588770537E-31, -1.000000000000000000, -1.276467311168695512E-16 ) ) ;
#217 = FACE_BOUND ( 'NONE', #32, .T. ) ;
#218 = DATE_TIME_ROLE ( 'classification_date' ) ;
#219 = CARTESIAN_POINT ( 'NONE',  ( 3.491481338843133355E-14, -1.276467311168695364E-15, 10.00000000000000000 ) ) ;
#220 = DIRECTION ( 'NONE',  ( -3.491481338843133355E-15, 1.224646799147353207E-16, -1.000000000000000000 ) ) ;
#221 = SHAPE_DEFINITION_REPRESENTATION ( #108, #116 ) ;
#222 = VERTEX_POINT ( 'NONE', #207 ) ;
#223 = ORGANIZATION ( 'UNSPECIFIED', 'UNSPECIFIED', '' ) ;
ENDSEC;
END-ISO-10303-21;
