ISO-10303-21;
HEADER;
FILE_DESCRIPTION (( 'STEP AP203' ),
    '1' );
FILE_NAME ('372651.step',
    '2021-12-08T09:33:24',
    ( '' ),
    ( '' ),
    'SwSTEP 2.0',
    'SolidWorks 2019',
    '' );
FILE_SCHEMA (( 'CONFIG_CONTROL_DESIGN' ));
ENDSEC;

DATA;
#1 = DIRECTION ( 'NONE',  ( 0.0000000000000000000, 1.000000000000000000, 0.0000000000000000000 ) ) ;
#2 =( GEOMETRIC_REPRESENTATION_CONTEXT ( 3 ) GLOBAL_UNCERTAINTY_ASSIGNED_CONTEXT ( ( #183 ) ) GLOBAL_UNIT_ASSIGNED_CONTEXT ( ( #65, #140, #125 ) ) REPRESENTATION_CONTEXT ( 'NONE', 'WORKASPACE' ) );
#3 = SHAPE_DEFINITION_REPRESENTATION ( #175, #161 ) ;
#4 = DIRECTION ( 'NONE',  ( 4.275831445896957731E-31, 1.000000000000000000, 1.224646799147353207E-16 ) ) ;
#5 = APPROVAL_PERSON_ORGANIZATION ( #86, #16, #130 ) ;
#6 = DIRECTION ( 'NONE',  ( -4.275831445896958607E-31, -1.000000000000000000, -1.224646799147353207E-16 ) ) ;
#7 = APPROVAL ( #200, 'UNSPECIFIED' ) ;
#8 = CARTESIAN_POINT ( 'NONE',  ( -5.344806869106648924E-31, 1.749999999999992673, -1.530813528815135136E-16 ) ) ;
#9 = DIRECTION ( 'NONE',  ( 3.491481338843133355E-15, -1.224646799147353207E-16, 1.000000000000000000 ) ) ;
#10 = APPROVAL_ROLE ( '' ) ;
#11 = DATE_AND_TIME ( #127, #37 ) ;
#12 = EDGE_LOOP ( 'NONE', ( #135 ) ) ;
#13 = PERSON_AND_ORGANIZATION ( #84, #23 ) ;
#14 = AXIS2_PLACEMENT_3D ( 'NONE', #76, #78, #93 ) ;
#15 = CARTESIAN_POINT ( 'NONE',  ( 0.0000000000000000000, 0.0000000000000000000, 0.0000000000000000000 ) ) ;
#16 = APPROVAL ( #145, 'UNSPECIFIED' ) ;
#17 = EDGE_LOOP ( 'NONE', ( #137 ) ) ;
#18 = EDGE_LOOP ( 'NONE', ( #164 ) ) ;
#19 = ORIENTED_EDGE ( 'NONE', *, *, #39, .F. ) ;
#20 = EDGE_CURVE ( 'NONE', #27, #27, #38, .T. ) ;
#21 = FACE_OUTER_BOUND ( 'NONE', #56, .T. ) ;
#22 = CARTESIAN_POINT ( 'NONE',  ( 4.189777606611760026E-14, 1.749999999999992673, 12.00000000000000000 ) ) ;
#23 = ORGANIZATION ( 'UNSPECIFIED', 'UNSPECIFIED', '' ) ;
#24 = PERSON_AND_ORGANIZATION_ROLE ( 'design_owner' ) ;
#25 = ADVANCED_FACE ( 'NONE', ( #21, #90 ), #79, .T. ) ;
#26 = VERTEX_POINT ( 'NONE', #151 ) ;
#27 = VERTEX_POINT ( 'NONE', #63 ) ;
#28 = AXIS2_PLACEMENT_3D ( 'NONE', #165, #197, #121 ) ;
#29 = FACE_OUTER_BOUND ( 'NONE', #17, .T. ) ;
#30 = CC_DESIGN_DATE_AND_TIME_ASSIGNMENT ( #11, #142, ( #138 ) ) ;
#31 = AXIS2_PLACEMENT_3D ( 'NONE', #185, #9, #6 ) ;
#32 = PRODUCT_RELATED_PRODUCT_CATEGORY ( 'detail', '', ( #67 ) ) ;
#33 = MANIFOLD_SOLID_BREP ( 'Corps-Déplacer/Copier1[1]', #172 ) ;
#34 = DIRECTION ( 'NONE',  ( 3.491481338843133355E-15, -1.224646799147353207E-16, 1.000000000000000000 ) ) ;
#35 = DATE_AND_TIME ( #181, #75 ) ;
#36 = FACE_BOUND ( 'NONE', #12, .T. ) ;
#37 = LOCAL_TIME ( 10, 33, 24.00000000000000000, #85 ) ;
#38 = CIRCLE ( 'NONE', #195, 1.749999999999994227 ) ;
#39 = EDGE_CURVE ( 'NONE', #81, #81, #48, .T. ) ;
#40 = DIRECTION ( 'NONE',  ( -3.491481338843133355E-15, 1.224646799147353207E-16, -1.000000000000000000 ) ) ;
#41 = FACE_OUTER_BOUND ( 'NONE', #114, .T. ) ;
#42 = MECHANICAL_CONTEXT ( 'NONE', #124, 'mechanical' ) ;
#43 = DIRECTION ( 'NONE',  ( 0.0000000000000000000, 1.000000000000000000, 0.0000000000000000000 ) ) ;
#44 = CARTESIAN_POINT ( 'NONE',  ( -1.282751189942629539E-30, 4.499285507813159771E-32, -3.673945427322994312E-16 ) ) ;
#45 = DIRECTION ( 'NONE',  ( -3.491481338843133355E-15, 1.224646799147353207E-16, -1.000000000000000000 ) ) ;
#46 = CC_DESIGN_PERSON_AND_ORGANIZATION_ASSIGNMENT ( #167, #24, ( #67 ) ) ;
#47 = DATE_AND_TIME ( #73, #190 ) ;
#48 = CIRCLE ( 'NONE', #14, 1.749999999999994227 ) ;
#49 = PERSON_AND_ORGANIZATION_ROLE ( 'creator' ) ;
#50 = AXIS2_PLACEMENT_3D ( 'NONE', #44, #45, #80 ) ;
#51 = APPROVAL_DATE_TIME ( #144, #7 ) ;
#52 = COORDINATED_UNIVERSAL_TIME_OFFSET ( 1, 0, .AHEAD. ) ;
#53 = ADVANCED_FACE ( 'NONE', ( #136 ), #120, .T. ) ;
#54 = AXIS2_PLACEMENT_3D ( 'NONE', #15, #134, #74 ) ;
#55 = PLANE ( 'NONE',  #60 ) ;
#56 = EDGE_LOOP ( 'NONE', ( #194 ) ) ;
#57 = EDGE_LOOP ( 'NONE', ( #157 ) ) ;
#58 = DIRECTION ( 'NONE',  ( 3.491481338843133355E-15, -1.224646799147353207E-16, 1.000000000000000000 ) ) ;
#59 = LOCAL_TIME ( 10, 33, 24.00000000000000000, #52 ) ;
#60 = AXIS2_PLACEMENT_3D ( 'NONE', #180, #34, #147 ) ;
#61 = ORIENTED_EDGE ( 'NONE', *, *, #119, .T. ) ;
#62 = ADVANCED_FACE ( 'NONE', ( #91, #36 ), #159, .T. ) ;
#63 = CARTESIAN_POINT ( 'NONE',  ( 4.189777606611760026E-14, 1.749999999999992673, 12.00000000000000000 ) ) ;
#64 = PRODUCT_DEFINITION_FORMATION_WITH_SPECIFIED_SOURCE ( 'ANY', '', #67, .NOT_KNOWN. ) ;
#65 =( LENGTH_UNIT ( ) NAMED_UNIT ( * ) SI_UNIT ( .MILLI., .METRE. ) );
#66 = DIRECTION ( 'NONE',  ( 4.275831445896958607E-31, 1.000000000000000000, 1.224646799147353207E-16 ) ) ;
#67 = PRODUCT ( '372651', '372651', '', ( #42 ) ) ;
#68 = ADVANCED_FACE ( 'NONE', ( #41, #160 ), #163, .T. ) ;
#69 = PERSON_AND_ORGANIZATION ( #84, #23 ) ;
#70 = SECURITY_CLASSIFICATION ( '', '', #128 ) ;
#71 = APPLICATION_PROTOCOL_DEFINITION ( 'international standard', 'config_control_design', 1994, #198 ) ;
#72 = AXIS2_PLACEMENT_3D ( 'NONE', #132, #108, #4 ) ;
#73 = CALENDAR_DATE ( 2021, 8, 12 ) ;
#74 = DIRECTION ( 'NONE',  ( 4.275831445896958607E-31, 1.000000000000000000, 1.224646799147353207E-16 ) ) ;
#75 = LOCAL_TIME ( 10, 33, 24.00000000000000000, #83 ) ;
#76 = CARTESIAN_POINT ( 'NONE',  ( 4.189777606611760026E-14, -1.469576158976823947E-15, 12.00000000000000000 ) ) ;
#77 = CC_DESIGN_PERSON_AND_ORGANIZATION_ASSIGNMENT ( #178, #112, ( #70 ) ) ;
#78 = DIRECTION ( 'NONE',  ( -3.491481338843133355E-15, 1.224646799147353207E-16, -1.000000000000000000 ) ) ;
#79 = CYLINDRICAL_SURFACE ( 'NONE', #72, 1.749999999999993339 ) ;
#80 = DIRECTION ( 'NONE',  ( 4.275831445896958607E-31, 1.000000000000000000, 1.224646799147353207E-16 ) ) ;
#81 = VERTEX_POINT ( 'NONE', #22 ) ;
#82 = PLANE ( 'NONE',  #31 ) ;
#83 = COORDINATED_UNIVERSAL_TIME_OFFSET ( 1, 0, .AHEAD. ) ;
#84 = PERSON ( 'UNSPECIFIED', 'UNSPECIFIED', 'UNSPECIFIED', ('UNSPECIFIED'), ('UNSPECIFIED'), ('UNSPECIFIED') ) ;
#85 = COORDINATED_UNIVERSAL_TIME_OFFSET ( 1, 0, .AHEAD. ) ;
#86 = PERSON_AND_ORGANIZATION ( #84, #23 ) ;
#87 = EDGE_LOOP ( 'NONE', ( #19 ) ) ;
#88 = APPROVAL_PERSON_ORGANIZATION ( #191, #7, #173 ) ;
#89 = ADVANCED_FACE ( 'NONE', ( #193 ), #55, .F. ) ;
#90 = FACE_OUTER_BOUND ( 'NONE', #18, .T. ) ;
#91 = FACE_OUTER_BOUND ( 'NONE', #57, .T. ) ;
#92 = CC_DESIGN_PERSON_AND_ORGANIZATION_ASSIGNMENT ( #203, #105, ( #64 ) ) ;
#93 = DIRECTION ( 'NONE',  ( 0.0000000000000000000, 1.000000000000000000, 0.0000000000000000000 ) ) ;
#94 = EDGE_LOOP ( 'NONE', ( #182 ) ) ;
#95 = CARTESIAN_POINT ( 'NONE',  ( 1.745740669421566678E-13, -6.123233995736766085E-15, 50.00000000000000000 ) ) ;
#96 = CARTESIAN_POINT ( 'NONE',  ( 1.745740669421566678E-13, -6.123233995736766085E-15, 50.00000000000000000 ) ) ;
#97 = DIRECTION ( 'NONE',  ( -3.491481338843133355E-15, 1.224646799147353207E-16, -1.000000000000000000 ) ) ;
#98 = CC_DESIGN_PERSON_AND_ORGANIZATION_ASSIGNMENT ( #69, #126, ( #138 ) ) ;
#99 = VERTEX_POINT ( 'NONE', #8 ) ;
#100 = LOCAL_TIME ( 10, 33, 24.00000000000000000, #174 ) ;
#101 = CLOSED_SHELL ( 'NONE', ( #179, #25, #53 ) ) ;
#102 = PLANE ( 'NONE',  #188 ) ;
#103 = PERSON_AND_ORGANIZATION ( #84, #23 ) ;
#104 = CALENDAR_DATE ( 2021, 8, 12 ) ;
#105 = PERSON_AND_ORGANIZATION_ROLE ( 'design_supplier' ) ;
#106 = MANIFOLD_SOLID_BREP ( 'Corps-Déplacer/Copier1[2]', #101 ) ;
#107 = EDGE_LOOP ( 'NONE', ( #61 ) ) ;
#108 = DIRECTION ( 'NONE',  ( -3.491481338843133355E-15, 1.224646799147353207E-16, -1.000000000000000000 ) ) ;
#109 = CC_DESIGN_SECURITY_CLASSIFICATION ( #70, ( #64 ) ) ;
#110 = FACE_OUTER_BOUND ( 'NONE', #94, .T. ) ;
#111 = DATE_TIME_ROLE ( 'classification_date' ) ;
#112 = PERSON_AND_ORGANIZATION_ROLE ( 'classification_officer' ) ;
#113 = DESIGN_CONTEXT ( 'detailed design', #198, 'design' ) ;
#114 = EDGE_LOOP ( 'NONE', ( #117 ) ) ;
#115 = CARTESIAN_POINT ( 'NONE',  ( 4.189777606611760026E-14, -1.469576158976823947E-15, 12.00000000000000000 ) ) ;
#116 = CC_DESIGN_APPROVAL ( #189, ( #70 ) ) ;
#117 = ORIENTED_EDGE ( 'NONE', *, *, #20, .F. ) ;
#118 = AXIS2_PLACEMENT_3D ( 'NONE', #95, #150, #1 ) ;
#119 = EDGE_CURVE ( 'NONE', #168, #168, #156, .T. ) ;
#120 = PLANE ( 'NONE',  #153 ) ;
#121 = DIRECTION ( 'NONE',  ( 1.000000000000000000, 0.0000000000000000000, 0.0000000000000000000 ) ) ;
#122 = DIRECTION ( 'NONE',  ( 0.0000000000000000000, 1.000000000000000000, 0.0000000000000000000 ) ) ;
#123 = AXIS2_PLACEMENT_3D ( 'NONE', #169, #139, #122 ) ;
#124 = APPLICATION_CONTEXT ( 'configuration controlled 3d designs of mechanical parts and assemblies' ) ;
#125 =( NAMED_UNIT ( * ) SI_UNIT ( $, .STERADIAN. ) SOLID_ANGLE_UNIT ( ) );
#126 = PERSON_AND_ORGANIZATION_ROLE ( 'creator' ) ;
#127 = CALENDAR_DATE ( 2021, 8, 12 ) ;
#128 = SECURITY_CLASSIFICATION_LEVEL ( 'unclassified' ) ;
#129 = AXIS2_PLACEMENT_3D ( 'NONE', #96, #97, #43 ) ;
#130 = APPROVAL_ROLE ( '' ) ;
#131 = DATE_AND_TIME ( #158, #59 ) ;
#132 = CARTESIAN_POINT ( 'NONE',  ( 0.0000000000000000000, 0.0000000000000000000, 0.0000000000000000000 ) ) ;
#133 = APPROVAL_DATE_TIME ( #35, #189 ) ;
#134 = DIRECTION ( 'NONE',  ( -3.491481338843133355E-15, 1.224646799147353207E-16, -1.000000000000000000 ) ) ;
#135 = ORIENTED_EDGE ( 'NONE', *, *, #154, .T. ) ;
#136 = FACE_OUTER_BOUND ( 'NONE', #87, .T. ) ;
#137 = ORIENTED_EDGE ( 'NONE', *, *, #154, .F. ) ;
#138 = PRODUCT_DEFINITION ( 'UNKNOWN', '', #64, #113 ) ;
#139 = DIRECTION ( 'NONE',  ( -3.491481338843133355E-15, 1.224646799147353207E-16, -1.000000000000000000 ) ) ;
#140 =( NAMED_UNIT ( * ) PLANE_ANGLE_UNIT ( ) SI_UNIT ( $, .RADIAN. ) );
#141 = CC_DESIGN_PERSON_AND_ORGANIZATION_ASSIGNMENT ( #13, #49, ( #64 ) ) ;
#142 = DATE_TIME_ROLE ( 'creation_date' ) ;
#143 = CC_DESIGN_DATE_AND_TIME_ASSIGNMENT ( #47, #111, ( #70 ) ) ;
#144 = DATE_AND_TIME ( #104, #100 ) ;
#145 = APPROVAL_STATUS ( 'not_yet_approved' ) ;
#146 = DIRECTION ( 'NONE',  ( -4.275831445896958607E-31, -1.000000000000000000, -1.224646799147353207E-16 ) ) ;
#147 = DIRECTION ( 'NONE',  ( -4.275831445896958607E-31, -1.000000000000000000, -1.224646799147353207E-16 ) ) ;
#148 = CC_DESIGN_APPROVAL ( #7, ( #138 ) ) ;
#149 = ADVANCED_FACE ( 'NONE', ( #29 ), #102, .F. ) ;
#150 = DIRECTION ( 'NONE',  ( -3.491481338843133355E-15, 1.224646799147353207E-16, -1.000000000000000000 ) ) ;
#151 = CARTESIAN_POINT ( 'NONE',  ( 1.745740669421566678E-13, 1.399999999999992806, 50.00000000000000000 ) ) ;
#152 = CIRCLE ( 'NONE', #129, 1.399999999999998801 ) ;
#153 = AXIS2_PLACEMENT_3D ( 'NONE', #184, #58, #146 ) ;
#154 = EDGE_CURVE ( 'NONE', #26, #26, #152, .T. ) ;
#155 = APPROVAL_STATUS ( 'not_yet_approved' ) ;
#156 = CIRCLE ( 'NONE', #123, 1.749999999999998668 ) ;
#157 = ORIENTED_EDGE ( 'NONE', *, *, #119, .F. ) ;
#158 = CALENDAR_DATE ( 2021, 8, 12 ) ;
#159 = CONICAL_SURFACE ( 'NONE', #118, 1.399999999999998801, 0.7853981633974437271 ) ;
#160 = FACE_OUTER_BOUND ( 'NONE', #107, .T. ) ;
#161 = ADVANCED_BREP_SHAPE_REPRESENTATION ( '372651', ( #33, #106, #28 ), #2 ) ;
#162 = DIRECTION ( 'NONE',  ( 0.0000000000000000000, 1.000000000000000000, 0.0000000000000000000 ) ) ;
#163 = CYLINDRICAL_SURFACE ( 'NONE', #54, 1.749999999999996447 ) ;
#164 = ORIENTED_EDGE ( 'NONE', *, *, #39, .T. ) ;
#165 = CARTESIAN_POINT ( 'NONE',  ( 0.0000000000000000000, 0.0000000000000000000, 0.0000000000000000000 ) ) ;
#166 = CIRCLE ( 'NONE', #50, 1.749999999999992673 ) ;
#167 = PERSON_AND_ORGANIZATION ( #84, #23 ) ;
#168 = VERTEX_POINT ( 'NONE', #186 ) ;
#169 = CARTESIAN_POINT ( 'NONE',  ( 1.733520484735615553E-13, -6.080371357766608941E-15, 49.64999999999999858 ) ) ;
#170 = CC_DESIGN_APPROVAL ( #16, ( #64 ) ) ;
#171 = APPLICATION_PROTOCOL_DEFINITION ( 'international standard', 'config_control_design', 1994, #124 ) ;
#172 = CLOSED_SHELL ( 'NONE', ( #89, #68, #62, #149 ) ) ;
#173 = APPROVAL_ROLE ( '' ) ;
#174 = COORDINATED_UNIVERSAL_TIME_OFFSET ( 1, 0, .AHEAD. ) ;
#175 = PRODUCT_DEFINITION_SHAPE ( 'NONE', 'NONE',  #138 ) ;
#176 = COORDINATED_UNIVERSAL_TIME_OFFSET ( 1, 0, .AHEAD. ) ;
#177 = EDGE_LOOP ( 'NONE', ( #196 ) ) ;
#178 = PERSON_AND_ORGANIZATION ( #84, #23 ) ;
#179 = ADVANCED_FACE ( 'NONE', ( #110 ), #82, .F. ) ;
#180 = CARTESIAN_POINT ( 'NONE',  ( 4.189777606611760026E-14, 1.312289809829119112E-32, 12.00000000000000000 ) ) ;
#181 = CALENDAR_DATE ( 2021, 8, 12 ) ;
#182 = ORIENTED_EDGE ( 'NONE', *, *, #192, .T. ) ;
#183 = UNCERTAINTY_MEASURE_WITH_UNIT (LENGTH_MEASURE( 1.000000000000000082E-05 ), #65, 'distance_accuracy_value', 'NONE');
#184 = CARTESIAN_POINT ( 'NONE',  ( 4.189777606611760026E-14, 1.312289809829119112E-32, 12.00000000000000000 ) ) ;
#185 = CARTESIAN_POINT ( 'NONE',  ( -6.413755949713147697E-31, 2.249642753906579886E-32, -1.836972713661497156E-16 ) ) ;
#186 = CARTESIAN_POINT ( 'NONE',  ( 1.733520484735615553E-13, 1.749999999999992673, 49.64999999999999858 ) ) ;
#187 = CARTESIAN_POINT ( 'NONE',  ( 1.745740669421566678E-13, 1.049831847863290473E-32, 50.00000000000000000 ) ) ;
#188 = AXIS2_PLACEMENT_3D ( 'NONE', #187, #199, #66 ) ;
#189 = APPROVAL ( #155, 'UNSPECIFIED' ) ;
#190 = LOCAL_TIME ( 10, 33, 24.00000000000000000, #176 ) ;
#191 = PERSON_AND_ORGANIZATION ( #84, #23 ) ;
#192 = EDGE_CURVE ( 'NONE', #99, #99, #166, .T. ) ;
#193 = FACE_OUTER_BOUND ( 'NONE', #177, .T. ) ;
#194 = ORIENTED_EDGE ( 'NONE', *, *, #192, .F. ) ;
#195 = AXIS2_PLACEMENT_3D ( 'NONE', #115, #40, #162 ) ;
#196 = ORIENTED_EDGE ( 'NONE', *, *, #20, .T. ) ;
#197 = DIRECTION ( 'NONE',  ( 0.0000000000000000000, 0.0000000000000000000, 1.000000000000000000 ) ) ;
#198 = APPLICATION_CONTEXT ( 'configuration controlled 3d designs of mechanical parts and assemblies' ) ;
#199 = DIRECTION ( 'NONE',  ( -3.491481338843133355E-15, 1.224646799147353207E-16, -1.000000000000000000 ) ) ;
#200 = APPROVAL_STATUS ( 'not_yet_approved' ) ;
#201 = APPROVAL_DATE_TIME ( #131, #16 ) ;
#202 = APPROVAL_PERSON_ORGANIZATION ( #103, #189, #10 ) ;
#203 = PERSON_AND_ORGANIZATION ( #84, #23 ) ;
ENDSEC;
END-ISO-10303-21;
