ISO-10303-21;
HEADER;
FILE_DESCRIPTION (( 'STEP AP203' ),
    '1' );
FILE_NAME ('372650.step',
    '2021-12-08T09:33:24',
    ( '' ),
    ( '' ),
    'SwSTEP 2.0',
    'SolidWorks 2019',
    '' );
FILE_SCHEMA (( 'CONFIG_CONTROL_DESIGN' ));
ENDSEC;

DATA;
#1 = CARTESIAN_POINT ( 'NONE',  ( -6.413839710158237013E-31, 0.0000000000000000000, -1.836996703606440502E-16 ) ) ;
#2 = CARTESIAN_POINT ( 'NONE',  ( 1.349815555280683623E-13, -4.934855052078584576E-15, 38.66025403784433223 ) ) ;
#3 = FACE_OUTER_BOUND ( 'NONE', #110, .T. ) ;
#4 = ORGANIZATION ( 'UNSPECIFIED', 'UNSPECIFIED', '' ) ;
#5 = PRODUCT_RELATED_PRODUCT_CATEGORY ( 'detail', '', ( #98 ) ) ;
#6 = DIRECTION ( 'NONE',  ( -3.491481338843133355E-15, 1.224646799147353207E-16, -1.000000000000000000 ) ) ;
#7 = UNCERTAINTY_MEASURE_WITH_UNIT (LENGTH_MEASURE( 1.000000000000000082E-05 ), #184, 'distance_accuracy_value', 'NONE');
#8 = COORDINATED_UNIVERSAL_TIME_OFFSET ( 1, 0, .AHEAD. ) ;
#9 = COORDINATED_UNIVERSAL_TIME_OFFSET ( 1, 0, .AHEAD. ) ;
#10 = CLOSED_SHELL ( 'NONE', ( #36, #131, #88 ) ) ;
#11 = AXIS2_PLACEMENT_3D ( 'NONE', #155, #63, #134 ) ;
#12 = LOCAL_TIME ( 10, 33, 24.00000000000000000, #187 ) ;
#13 = PRODUCT_DEFINITION_SHAPE ( 'NONE', 'NONE',  #198 ) ;
#14 =( NAMED_UNIT ( * ) SI_UNIT ( $, .STERADIAN. ) SOLID_ANGLE_UNIT ( ) );
#15 = PERSON_AND_ORGANIZATION ( #75, #4 ) ;
#16 = CONICAL_SURFACE ( 'NONE', #114, 6.500000000000000000, 0.2617993877991502405 ) ;
#17 = EDGE_LOOP ( 'NONE', ( #204 ) ) ;
#18 = FACE_OUTER_BOUND ( 'NONE', #145, .T. ) ;
#19 = ORIENTED_EDGE ( 'NONE', *, *, #173, .F. ) ;
#20 = CARTESIAN_POINT ( 'NONE',  ( 2.073939915272820834E-13, 2.999999999999993783, 59.39999999999999147 ) ) ;
#21 = CIRCLE ( 'NONE', #115, 1.499999999999998668 ) ;
#22 = FACE_OUTER_BOUND ( 'NONE', #128, .T. ) ;
#23 = CC_DESIGN_APPROVAL ( #221, ( #175 ) ) ;
#24 = DIRECTION ( 'NONE',  ( 3.491481338843133355E-15, -1.276467311168695266E-16, 1.000000000000000000 ) ) ;
#25 = CC_DESIGN_PERSON_AND_ORGANIZATION_ASSIGNMENT ( #15, #156, ( #198 ) ) ;
#26 = VERTEX_POINT ( 'NONE', #37 ) ;
#27 = DIRECTION ( 'NONE',  ( -4.456761796588771413E-31, -1.000000000000000000, -1.276467311168695019E-16 ) ) ;
#28 = APPLICATION_PROTOCOL_DEFINITION ( 'international standard', 'config_control_design', 1994, #90 ) ;
#29 = DATE_AND_TIME ( #218, #49 ) ;
#30 = CALENDAR_DATE ( 2021, 8, 12 ) ;
#31 = CALENDAR_DATE ( 2021, 8, 12 ) ;
#32 = EDGE_LOOP ( 'NONE', ( #191 ) ) ;
#33 = LOCAL_TIME ( 10, 33, 24.00000000000000000, #215 ) ;
#34 = APPROVAL_PERSON_ORGANIZATION ( #44, #95, #219 ) ;
#35 = DIRECTION ( 'NONE',  ( -4.275831445896958607E-31, -1.000000000000000000, -1.224646799147353207E-16 ) ) ;
#36 = ADVANCED_FACE ( 'NONE', ( #73 ), #148, .T. ) ;
#37 = CARTESIAN_POINT ( 'NONE',  ( -3.368048475777682952E-30, -1.499999999999998668, -9.646474229456003855E-16 ) ) ;
#38 = APPLICATION_CONTEXT ( 'configuration controlled 3d designs of mechanical parts and assemblies' ) ;
#39 = CARTESIAN_POINT ( 'NONE',  ( 2.094888803305880013E-13, -7.347880794884118356E-15, 60.00000000000000000 ) ) ;
#40 = DIRECTION ( 'NONE',  ( 4.275831445896958607E-31, 1.000000000000000000, 1.224646799147353207E-16 ) ) ;
#41 = SECURITY_CLASSIFICATION ( '', '', #66 ) ;
#42 = CARTESIAN_POINT ( 'NONE',  ( 2.094888803305880013E-13, 1.799711739194219277E-32, 60.00000000000000000 ) ) ;
#43 = VERTEX_POINT ( 'NONE', #111 ) ;
#44 = PERSON_AND_ORGANIZATION ( #75, #4 ) ;
#45 = CIRCLE ( 'NONE', #172, 2.999999999999999112 ) ;
#46 = CC_DESIGN_PERSON_AND_ORGANIZATION_ASSIGNMENT ( #123, #174, ( #175 ) ) ;
#47 = DIRECTION ( 'NONE',  ( 1.000000000000000000, 0.0000000000000000000, 0.0000000000000000000 ) ) ;
#48 = APPROVAL_DATE_TIME ( #139, #106 ) ;
#49 = LOCAL_TIME ( 10, 33, 24.00000000000000000, #160 ) ;
#50 = ADVANCED_FACE ( 'NONE', ( #109, #18 ), #55, .T. ) ;
#51 = APPROVAL_DATE_TIME ( #67, #221 ) ;
#52 = ORIENTED_EDGE ( 'NONE', *, *, #118, .T. ) ;
#53 = AXIS2_PLACEMENT_3D ( 'NONE', #170, #6, #58 ) ;
#54 = CC_DESIGN_SECURITY_CLASSIFICATION ( #41, ( #175 ) ) ;
#55 = CYLINDRICAL_SURFACE ( 'NONE', #83, 2.999999999999999112 ) ;
#56 = EDGE_LOOP ( 'NONE', ( #206 ) ) ;
#57 = PLANE ( 'NONE',  #11 ) ;
#58 = DIRECTION ( 'NONE',  ( 0.0000000000000000000, 1.000000000000000000, 0.0000000000000000000 ) ) ;
#59 = DIRECTION ( 'NONE',  ( 3.491481338843133355E-15, -1.276467311168695266E-16, 1.000000000000000000 ) ) ;
#60 = DESIGN_CONTEXT ( 'detailed design', #90, 'design' ) ;
#61 = CC_DESIGN_APPROVAL ( #106, ( #198 ) ) ;
#62 = DIRECTION ( 'NONE',  ( 3.491481338843133355E-15, -1.276467311168695266E-16, 1.000000000000000000 ) ) ;
#63 = DIRECTION ( 'NONE',  ( 3.491481338843133355E-15, -1.224646799147353207E-16, 1.000000000000000000 ) ) ;
#64 = PERSON_AND_ORGANIZATION ( #75, #4 ) ;
#65 = CIRCLE ( 'NONE', #150, 2.400000000000001688 ) ;
#66 = SECURITY_CLASSIFICATION_LEVEL ( 'unclassified' ) ;
#67 = DATE_AND_TIME ( #30, #33 ) ;
#68 = CC_DESIGN_PERSON_AND_ORGANIZATION_ASSIGNMENT ( #64, #69, ( #41 ) ) ;
#69 = PERSON_AND_ORGANIZATION_ROLE ( 'classification_officer' ) ;
#70 = ADVANCED_FACE ( 'NONE', ( #22, #94 ), #144, .T. ) ;
#71 = CIRCLE ( 'NONE', #159, 1.499999999999998668 ) ;
#72 = ORIENTED_EDGE ( 'NONE', *, *, #158, .F. ) ;
#73 = FACE_OUTER_BOUND ( 'NONE', #17, .T. ) ;
#74 = EDGE_CURVE ( 'NONE', #26, #26, #186, .T. ) ;
#75 = PERSON ( 'UNSPECIFIED', 'UNSPECIFIED', 'UNSPECIFIED', ('UNSPECIFIED'), ('UNSPECIFIED'), ('UNSPECIFIED') ) ;
#76 = AXIS2_PLACEMENT_3D ( 'NONE', #1, #93, #96 ) ;
#77 = FACE_BOUND ( 'NONE', #32, .T. ) ;
#78 = CARTESIAN_POINT ( 'NONE',  ( 8.937520540222437820E-14, -3.267510751259748528E-15, 25.59807621135330180 ) ) ;
#79 = CARTESIAN_POINT ( 'NONE',  ( 6.982962677686266711E-14, -2.552934622337390728E-15, 20.00000000000000000 ) ) ;
#80 = VERTEX_POINT ( 'NONE', #136 ) ;
#81 = CALENDAR_DATE ( 2021, 8, 12 ) ;
#82 = APPROVAL_STATUS ( 'not_yet_approved' ) ;
#83 = AXIS2_PLACEMENT_3D ( 'NONE', #194, #210, #40 ) ;
#84 = MECHANICAL_CONTEXT ( 'NONE', #38, 'mechanical' ) ;
#85 = APPROVAL_STATUS ( 'not_yet_approved' ) ;
#86 = AXIS2_PLACEMENT_3D ( 'NONE', #127, #177, #35 ) ;
#87 = EDGE_LOOP ( 'NONE', ( #203 ) ) ;
#88 = ADVANCED_FACE ( 'NONE', ( #149 ), #119, .F. ) ;
#89 = CC_DESIGN_DATE_AND_TIME_ASSIGNMENT ( #138, #103, ( #41 ) ) ;
#90 = APPLICATION_CONTEXT ( 'configuration controlled 3d designs of mechanical parts and assemblies' ) ;
#91 = VERTEX_POINT ( 'NONE', #200 ) ;
#92 = DIRECTION ( 'NONE',  ( 0.0000000000000000000, 1.000000000000000000, 0.0000000000000000000 ) ) ;
#93 = DIRECTION ( 'NONE',  ( 3.491481338843133355E-15, -1.276467311168695266E-16, 1.000000000000000000 ) ) ;
#94 = FACE_BOUND ( 'NONE', #164, .T. ) ;
#95 = APPROVAL ( #121, 'UNSPECIFIED' ) ;
#96 = DIRECTION ( 'NONE',  ( -4.456761796588770537E-31, -1.000000000000000000, -1.276467311168695512E-16 ) ) ;
#97 = APPROVAL_ROLE ( '' ) ;
#98 = PRODUCT ( '372650', '372650', '', ( #84 ) ) ;
#99 = PERSON_AND_ORGANIZATION ( #75, #4 ) ;
#100 = CC_DESIGN_DATE_AND_TIME_ASSIGNMENT ( #29, #101, ( #198 ) ) ;
#101 = DATE_TIME_ROLE ( 'creation_date' ) ;
#102 = LOCAL_TIME ( 10, 33, 24.00000000000000000, #8 ) ;
#103 = DATE_TIME_ROLE ( 'classification_date' ) ;
#104 = APPROVAL_DATE_TIME ( #126, #95 ) ;
#105 = LOCAL_TIME ( 10, 33, 24.00000000000000000, #9 ) ;
#106 = APPROVAL ( #82, 'UNSPECIFIED' ) ;
#107 = ORIENTED_EDGE ( 'NONE', *, *, #74, .T. ) ;
#108 = SHAPE_DEFINITION_REPRESENTATION ( #13, #202 ) ;
#109 = FACE_OUTER_BOUND ( 'NONE', #56, .T. ) ;
#110 = EDGE_LOOP ( 'NONE', ( #129 ) ) ;
#111 = CARTESIAN_POINT ( 'NONE',  ( 6.982962677686266711E-14, -1.500000000000001332, 20.00000000000000000 ) ) ;
#112 = CARTESIAN_POINT ( 'NONE',  ( -4.275870630573526707E-31, 1.499773526796246047E-32, -1.224658022084773030E-16 ) ) ;
#113 = ADVANCED_FACE ( 'NONE', ( #77, #214 ), #16, .T. ) ;
#114 = AXIS2_PLACEMENT_3D ( 'NONE', #2, #62, #152 ) ;
#115 = AXIS2_PLACEMENT_3D ( 'NONE', #132, #133, #195 ) ;
#116 = DIRECTION ( 'NONE',  ( 0.0000000000000000000, 1.000000000000000000, 0.0000000000000000000 ) ) ;
#117 = DIRECTION ( 'NONE',  ( -3.491481338843133355E-15, 1.224646799147353207E-16, -1.000000000000000000 ) ) ;
#118 = EDGE_CURVE ( 'NONE', #80, #80, #65, .T. ) ;
#119 = PLANE ( 'NONE',  #213 ) ;
#120 = APPROVAL_PERSON_ORGANIZATION ( #171, #106, #185 ) ;
#121 = APPROVAL_STATUS ( 'not_yet_approved' ) ;
#122 = CARTESIAN_POINT ( 'NONE',  ( 0.0000000000000000000, 0.0000000000000000000, 0.0000000000000000000 ) ) ;
#123 = PERSON_AND_ORGANIZATION ( #75, #4 ) ;
#124 = EDGE_CURVE ( 'NONE', #209, #209, #45, .T. ) ;
#125 = EDGE_LOOP ( 'NONE', ( #222 ) ) ;
#126 = DATE_AND_TIME ( #81, #102 ) ;
#127 = CARTESIAN_POINT ( 'NONE',  ( 6.982962677686266711E-14, 2.249639673992780117E-32, 20.00000000000000000 ) ) ;
#128 = EDGE_LOOP ( 'NONE', ( #72 ) ) ;
#129 = ORIENTED_EDGE ( 'NONE', *, *, #135, .F. ) ;
#130 = DIRECTION ( 'NONE',  ( -3.491481338843133355E-15, 1.276467311168695266E-16, -1.000000000000000000 ) ) ;
#131 = ADVANCED_FACE ( 'NONE', ( #181, #193 ), #211, .T. ) ;
#132 = CARTESIAN_POINT ( 'NONE',  ( 6.982962677686266711E-14, -2.552934622337390728E-15, 20.00000000000000000 ) ) ;
#133 = DIRECTION ( 'NONE',  ( 3.491481338843133355E-15, -1.276467311168695266E-16, 1.000000000000000000 ) ) ;
#134 = DIRECTION ( 'NONE',  ( -4.275831445896958607E-31, -1.000000000000000000, -1.224646799147353207E-16 ) ) ;
#135 = EDGE_CURVE ( 'NONE', #43, #43, #71, .T. ) ;
#136 = CARTESIAN_POINT ( 'NONE',  ( 2.094888803305880013E-13, 2.399999999999994138, 60.00000000000000000 ) ) ;
#137 = CALENDAR_DATE ( 2021, 8, 12 ) ;
#138 = DATE_AND_TIME ( #137, #12 ) ;
#139 = DATE_AND_TIME ( #31, #105 ) ;
#140 = MANIFOLD_SOLID_BREP ( 'Corps-Déplacer/Copier1[2]', #10 ) ;
#141 = AXIS2_PLACEMENT_3D ( 'NONE', #39, #178, #92 ) ;
#142 = MANIFOLD_SOLID_BREP ( 'Corps-Déplacer/Copier1[1]', #192 ) ;
#143 = CC_DESIGN_PERSON_AND_ORGANIZATION_ASSIGNMENT ( #99, #199, ( #98 ) ) ;
#144 = CONICAL_SURFACE ( 'NONE', #141, 2.400000000000001688, 0.7853981633974453924 ) ;
#145 = EDGE_LOOP ( 'NONE', ( #176 ) ) ;
#146 = AXIS2_PLACEMENT_3D ( 'NONE', #42, #117, #182 ) ;
#147 = EDGE_LOOP ( 'NONE', ( #163 ) ) ;
#148 = PLANE ( 'NONE',  #86 ) ;
#149 = FACE_OUTER_BOUND ( 'NONE', #87, .T. ) ;
#150 = AXIS2_PLACEMENT_3D ( 'NONE', #169, #196, #116 ) ;
#151 = DIRECTION ( 'NONE',  ( -4.275831445896958607E-31, -1.000000000000000000, -1.224646799147353207E-16 ) ) ;
#152 = DIRECTION ( 'NONE',  ( 0.0000000000000000000, -1.000000000000000000, 0.0000000000000000000 ) ) ;
#153 = ADVANCED_FACE ( 'NONE', ( #3 ), #57, .F. ) ;
#154 = FACE_OUTER_BOUND ( 'NONE', #125, .T. ) ;
#155 = CARTESIAN_POINT ( 'NONE',  ( 6.982962677686266711E-14, 2.249639673992780117E-32, 20.00000000000000000 ) ) ;
#156 = PERSON_AND_ORGANIZATION_ROLE ( 'creator' ) ;
#157 =( NAMED_UNIT ( * ) PLANE_ANGLE_UNIT ( ) SI_UNIT ( $, .RADIAN. ) );
#158 = EDGE_CURVE ( 'NONE', #183, #183, #217, .T. ) ;
#159 = AXIS2_PLACEMENT_3D ( 'NONE', #79, #59, #168 ) ;
#160 = COORDINATED_UNIVERSAL_TIME_OFFSET ( 1, 0, .AHEAD. ) ;
#161 = PERSON_AND_ORGANIZATION ( #75, #4 ) ;
#162 = PERSON_AND_ORGANIZATION_ROLE ( 'creator' ) ;
#163 = ORIENTED_EDGE ( 'NONE', *, *, #124, .T. ) ;
#164 = EDGE_LOOP ( 'NONE', ( #52 ) ) ;
#165 = CARTESIAN_POINT ( 'NONE',  ( -2.699534206289368204E-30, 7.524489584330192056E-32, -7.731773262702962682E-16 ) ) ;
#166 = DIRECTION ( 'NONE',  ( 3.491481338843133355E-15, -1.224646799147353207E-16, 1.000000000000000000 ) ) ;
#167 = CC_DESIGN_PERSON_AND_ORGANIZATION_ASSIGNMENT ( #188, #162, ( #175 ) ) ;
#168 = DIRECTION ( 'NONE',  ( 0.0000000000000000000, -1.000000000000000000, 0.0000000000000000000 ) ) ;
#169 = CARTESIAN_POINT ( 'NONE',  ( 2.094888803305880013E-13, -7.347880794884118356E-15, 60.00000000000000000 ) ) ;
#170 = CARTESIAN_POINT ( 'NONE',  ( 2.073939915272820834E-13, -7.274401986935278213E-15, 59.39999999999999147 ) ) ;
#171 = PERSON_AND_ORGANIZATION ( #75, #4 ) ;
#172 = AXIS2_PLACEMENT_3D ( 'NONE', #78, #130, #180 ) ;
#173 = EDGE_CURVE ( 'NONE', #91, #91, #21, .T. ) ;
#174 = PERSON_AND_ORGANIZATION_ROLE ( 'design_supplier' ) ;
#175 = PRODUCT_DEFINITION_FORMATION_WITH_SPECIFIED_SOURCE ( 'ANY', '', #98, .NOT_KNOWN. ) ;
#176 = ORIENTED_EDGE ( 'NONE', *, *, #124, .F. ) ;
#177 = DIRECTION ( 'NONE',  ( 3.491481338843133355E-15, -1.224646799147353207E-16, 1.000000000000000000 ) ) ;
#178 = DIRECTION ( 'NONE',  ( -3.491481338843133355E-15, 1.224646799147353207E-16, -1.000000000000000000 ) ) ;
#179 = AXIS2_PLACEMENT_3D ( 'NONE', #122, #216, #47 ) ;
#180 = DIRECTION ( 'NONE',  ( 0.0000000000000000000, -1.000000000000000000, 0.0000000000000000000 ) ) ;
#181 = FACE_OUTER_BOUND ( 'NONE', #189, .T. ) ;
#182 = DIRECTION ( 'NONE',  ( 4.275831445896958607E-31, 1.000000000000000000, 1.224646799147353207E-16 ) ) ;
#183 = VERTEX_POINT ( 'NONE', #20 ) ;
#184 =( LENGTH_UNIT ( ) NAMED_UNIT ( * ) SI_UNIT ( .MILLI., .METRE. ) );
#185 = APPROVAL_ROLE ( '' ) ;
#186 = CIRCLE ( 'NONE', #208, 1.499999999999998668 ) ;
#187 = COORDINATED_UNIVERSAL_TIME_OFFSET ( 1, 0, .AHEAD. ) ;
#188 = PERSON_AND_ORGANIZATION ( #75, #4 ) ;
#189 = EDGE_LOOP ( 'NONE', ( #107 ) ) ;
#190 = CC_DESIGN_APPROVAL ( #95, ( #41 ) ) ;
#191 = ORIENTED_EDGE ( 'NONE', *, *, #135, .T. ) ;
#192 = CLOSED_SHELL ( 'NONE', ( #50, #70, #207, #113, #153 ) ) ;
#193 = FACE_OUTER_BOUND ( 'NONE', #220, .T. ) ;
#194 = CARTESIAN_POINT ( 'NONE',  ( 0.0000000000000000000, 0.0000000000000000000, 0.0000000000000000000 ) ) ;
#195 = DIRECTION ( 'NONE',  ( 0.0000000000000000000, -1.000000000000000000, 0.0000000000000000000 ) ) ;
#196 = DIRECTION ( 'NONE',  ( -3.491481338843133355E-15, 1.224646799147353207E-16, -1.000000000000000000 ) ) ;
#197 = CARTESIAN_POINT ( 'NONE',  ( 8.937520540222437820E-14, -3.000000000000002665, 25.59807621135330180 ) ) ;
#198 = PRODUCT_DEFINITION ( 'UNKNOWN', '', #175, #60 ) ;
#199 = PERSON_AND_ORGANIZATION_ROLE ( 'design_owner' ) ;
#200 = CARTESIAN_POINT ( 'NONE',  ( 6.982962677686266711E-14, -1.500000000000001332, 20.00000000000000000 ) ) ;
#201 = APPLICATION_PROTOCOL_DEFINITION ( 'international standard', 'config_control_design', 1994, #38 ) ;
#202 = ADVANCED_BREP_SHAPE_REPRESENTATION ( '372650', ( #142, #140, #179 ), #205 ) ;
#203 = ORIENTED_EDGE ( 'NONE', *, *, #74, .F. ) ;
#204 = ORIENTED_EDGE ( 'NONE', *, *, #173, .T. ) ;
#205 =( GEOMETRIC_REPRESENTATION_CONTEXT ( 3 ) GLOBAL_UNCERTAINTY_ASSIGNED_CONTEXT ( ( #7 ) ) GLOBAL_UNIT_ASSIGNED_CONTEXT ( ( #184, #157, #14 ) ) REPRESENTATION_CONTEXT ( 'NONE', 'WORKASPACE' ) );
#206 = ORIENTED_EDGE ( 'NONE', *, *, #158, .T. ) ;
#207 = ADVANCED_FACE ( 'NONE', ( #154 ), #212, .F. ) ;
#208 = AXIS2_PLACEMENT_3D ( 'NONE', #165, #24, #27 ) ;
#209 = VERTEX_POINT ( 'NONE', #197 ) ;
#210 = DIRECTION ( 'NONE',  ( -3.491481338843133355E-15, 1.224646799147353207E-16, -1.000000000000000000 ) ) ;
#211 = CYLINDRICAL_SURFACE ( 'NONE', #76, 1.499999999999998668 ) ;
#212 = PLANE ( 'NONE',  #146 ) ;
#213 = AXIS2_PLACEMENT_3D ( 'NONE', #112, #166, #151 ) ;
#214 = FACE_OUTER_BOUND ( 'NONE', #147, .T. ) ;
#215 = COORDINATED_UNIVERSAL_TIME_OFFSET ( 1, 0, .AHEAD. ) ;
#216 = DIRECTION ( 'NONE',  ( 0.0000000000000000000, 0.0000000000000000000, 1.000000000000000000 ) ) ;
#217 = CIRCLE ( 'NONE', #53, 3.000000000000001332 ) ;
#218 = CALENDAR_DATE ( 2021, 8, 12 ) ;
#219 = APPROVAL_ROLE ( '' ) ;
#220 = EDGE_LOOP ( 'NONE', ( #19 ) ) ;
#221 = APPROVAL ( #85, 'UNSPECIFIED' ) ;
#222 = ORIENTED_EDGE ( 'NONE', *, *, #118, .F. ) ;
#223 = APPROVAL_PERSON_ORGANIZATION ( #161, #221, #97 ) ;
ENDSEC;
END-ISO-10303-21;
