ISO-10303-21;
HEADER;
FILE_DESCRIPTION (( 'STEP AP203' ),
    '1' );
FILE_NAME ('372649.step',
    '2021-12-08T09:33:23',
    ( '' ),
    ( '' ),
    'SwSTEP 2.0',
    'SolidWorks 2019',
    '' );
FILE_SCHEMA (( 'CONFIG_CONTROL_DESIGN' ));
ENDSEC;

DATA;
#1 = ORIENTED_EDGE ( 'NONE', *, *, #86, .F. ) ;
#2 = CC_DESIGN_SECURITY_CLASSIFICATION ( #195, ( #56 ) ) ;
#3 = LOCAL_TIME ( 10, 33, 23.00000000000000000, #102 ) ;
#4 = DIRECTION ( 'NONE',  ( 3.491481338843133355E-15, -1.224646799147353207E-16, 1.000000000000000000 ) ) ;
#5 = DIRECTION ( 'NONE',  ( 0.0000000000000000000, -1.000000000000000000, 0.0000000000000000000 ) ) ;
#6 = ADVANCED_FACE ( 'NONE', ( #167 ), #157, .F. ) ;
#7 =( GEOMETRIC_REPRESENTATION_CONTEXT ( 3 ) GLOBAL_UNCERTAINTY_ASSIGNED_CONTEXT ( ( #202 ) ) GLOBAL_UNIT_ASSIGNED_CONTEXT ( ( #218, #64, #163 ) ) REPRESENTATION_CONTEXT ( 'NONE', 'WORKASPACE' ) );
#8 = CARTESIAN_POINT ( 'NONE',  ( 2.094888803305880013E-13, -7.347880794884118356E-15, 60.00000000000000000 ) ) ;
#9 = PLANE ( 'NONE',  #222 ) ;
#10 = DIRECTION ( 'NONE',  ( -3.491481338843133355E-15, 1.224646799147353207E-16, -1.000000000000000000 ) ) ;
#11 = PRODUCT_RELATED_PRODUCT_CATEGORY ( 'detail', '', ( #216 ) ) ;
#12 = CALENDAR_DATE ( 2021, 8, 12 ) ;
#13 = APPROVAL_DATE_TIME ( #81, #186 ) ;
#14 = EDGE_CURVE ( 'NONE', #211, #211, #213, .T. ) ;
#15 = DATE_AND_TIME ( #12, #158 ) ;
#16 = PERSON_AND_ORGANIZATION_ROLE ( 'design_owner' ) ;
#17 = AXIS2_PLACEMENT_3D ( 'NONE', #8, #59, #199 ) ;
#18 = MANIFOLD_SOLID_BREP ( 'Corps-Déplacer/Copier1[1]', #100 ) ;
#19 = CC_DESIGN_PERSON_AND_ORGANIZATION_ASSIGNMENT ( #120, #16, ( #216 ) ) ;
#20 = AXIS2_PLACEMENT_3D ( 'NONE', #97, #116, #151 ) ;
#21 = FACE_OUTER_BOUND ( 'NONE', #37, .T. ) ;
#22 = CARTESIAN_POINT ( 'NONE',  ( 4.189777606611760026E-14, 2.249639673992780938E-32, 12.00000000000000000 ) ) ;
#23 = CARTESIAN_POINT ( 'NONE',  ( 0.0000000000000000000, 0.0000000000000000000, 0.0000000000000000000 ) ) ;
#24 = FACE_OUTER_BOUND ( 'NONE', #71, .T. ) ;
#25 = APPROVAL ( #48, 'UNSPECIFIED' ) ;
#26 = VERTEX_POINT ( 'NONE', #188 ) ;
#27 = PERSON ( 'UNSPECIFIED', 'UNSPECIFIED', 'UNSPECIFIED', ('UNSPECIFIED'), ('UNSPECIFIED'), ('UNSPECIFIED') ) ;
#28 = DATE_AND_TIME ( #192, #84 ) ;
#29 = AXIS2_PLACEMENT_3D ( 'NONE', #204, #171, #214 ) ;
#30 = APPROVAL_DATE_TIME ( #146, #25 ) ;
#31 = APPLICATION_PROTOCOL_DEFINITION ( 'international standard', 'config_control_design', 1994, #141 ) ;
#32 = AXIS2_PLACEMENT_3D ( 'NONE', #65, #142, #47 ) ;
#33 = PERSON_AND_ORGANIZATION ( #27, #96 ) ;
#34 = CIRCLE ( 'NONE', #77, 1.499999999999998668 ) ;
#35 = CARTESIAN_POINT ( 'NONE',  ( 6.144335469147928612E-14, -3.000000000000000444, 17.59807621135329470 ) ) ;
#36 = CC_DESIGN_PERSON_AND_ORGANIZATION_ASSIGNMENT ( #50, #220, ( #195 ) ) ;
#37 = EDGE_LOOP ( 'NONE', ( #131 ) ) ;
#38 = ORIENTED_EDGE ( 'NONE', *, *, #177, .T. ) ;
#39 = CC_DESIGN_APPROVAL ( #25, ( #195 ) ) ;
#40 = ADVANCED_FACE ( 'NONE', ( #78 ), #117, .F. ) ;
#41 = EDGE_LOOP ( 'NONE', ( #166 ) ) ;
#42 = DIRECTION ( 'NONE',  ( 0.0000000000000000000, -1.000000000000000000, 0.0000000000000000000 ) ) ;
#43 = FACE_OUTER_BOUND ( 'NONE', #165, .T. ) ;
#44 = CARTESIAN_POINT ( 'NONE',  ( 1.070497048173233081E-13, -3.913681203143628758E-15, 30.66025403784432868 ) ) ;
#45 = CYLINDRICAL_SURFACE ( 'NONE', #169, 1.499999999999998668 ) ;
#46 = PLANE ( 'NONE',  #127 ) ;
#47 = DIRECTION ( 'NONE',  ( 1.000000000000000000, 0.0000000000000000000, 0.0000000000000000000 ) ) ;
#48 = APPROVAL_STATUS ( 'not_yet_approved' ) ;
#49 = CIRCLE ( 'NONE', #20, 1.499999999999998668 ) ;
#50 = PERSON_AND_ORGANIZATION ( #27, #96 ) ;
#51 = APPROVAL_ROLE ( '' ) ;
#52 = AXIS2_PLACEMENT_3D ( 'NONE', #94, #92, #215 ) ;
#53 = CC_DESIGN_PERSON_AND_ORGANIZATION_ASSIGNMENT ( #193, #189, ( #156 ) ) ;
#54 = CC_DESIGN_APPROVAL ( #61, ( #56 ) ) ;
#55 = ORIENTED_EDGE ( 'NONE', *, *, #210, .T. ) ;
#56 = PRODUCT_DEFINITION_FORMATION_WITH_SPECIFIED_SOURCE ( 'ANY', '', #216, .NOT_KNOWN. ) ;
#57 = CYLINDRICAL_SURFACE ( 'NONE', #133, 2.999999999999998224 ) ;
#58 = CARTESIAN_POINT ( 'NONE',  ( 4.189777606611760026E-14, -1.500000000000000222, 12.00000000000000000 ) ) ;
#59 = DIRECTION ( 'NONE',  ( -3.491481338843133355E-15, 1.224646799147353207E-16, -1.000000000000000000 ) ) ;
#60 = CARTESIAN_POINT ( 'NONE',  ( 2.073939915272820834E-13, -7.274401986935278213E-15, 59.39999999999999147 ) ) ;
#61 = APPROVAL ( #162, 'UNSPECIFIED' ) ;
#62 = CARTESIAN_POINT ( 'NONE',  ( 2.094888803305880013E-13, -7.347880794884118356E-15, 60.00000000000000000 ) ) ;
#63 = APPROVAL_PERSON_ORGANIZATION ( #207, #186, #70 ) ;
#64 =( NAMED_UNIT ( * ) PLANE_ANGLE_UNIT ( ) SI_UNIT ( $, .RADIAN. ) );
#65 = CARTESIAN_POINT ( 'NONE',  ( 0.0000000000000000000, 0.0000000000000000000, 0.0000000000000000000 ) ) ;
#66 = SECURITY_CLASSIFICATION_LEVEL ( 'unclassified' ) ;
#67 = AXIS2_PLACEMENT_3D ( 'NONE', #172, #185, #183 ) ;
#68 = APPROVAL_PERSON_ORGANIZATION ( #85, #61, #51 ) ;
#69 = COORDINATED_UNIVERSAL_TIME_OFFSET ( 1, 0, .AHEAD. ) ;
#70 = APPROVAL_ROLE ( '' ) ;
#71 = EDGE_LOOP ( 'NONE', ( #198 ) ) ;
#72 = APPROVAL_PERSON_ORGANIZATION ( #160, #25, #221 ) ;
#73 = DESIGN_CONTEXT ( 'detailed design', #141, 'design' ) ;
#74 = ORIENTED_EDGE ( 'NONE', *, *, #86, .T. ) ;
#75 = DIRECTION ( 'NONE',  ( -4.275831445896958607E-31, -1.000000000000000000, -1.224646799147353207E-16 ) ) ;
#76 = FACE_OUTER_BOUND ( 'NONE', #91, .T. ) ;
#77 = AXIS2_PLACEMENT_3D ( 'NONE', #201, #111, #5 ) ;
#78 = FACE_OUTER_BOUND ( 'NONE', #128, .T. ) ;
#79 = DIRECTION ( 'NONE',  ( -3.491481338843133355E-15, 1.276467311168695266E-16, -1.000000000000000000 ) ) ;
#80 = CARTESIAN_POINT ( 'NONE',  ( -6.413839710158237013E-31, 0.0000000000000000000, -1.836996703606440502E-16 ) ) ;
#81 = DATE_AND_TIME ( #178, #3 ) ;
#82 = DATE_TIME_ROLE ( 'creation_date' ) ;
#83 = APPLICATION_CONTEXT ( 'configuration controlled 3d designs of mechanical parts and assemblies' ) ;
#84 = LOCAL_TIME ( 10, 33, 23.00000000000000000, #124 ) ;
#85 = PERSON_AND_ORGANIZATION ( #27, #96 ) ;
#86 = EDGE_CURVE ( 'NONE', #26, #26, #149, .T. ) ;
#87 = APPLICATION_PROTOCOL_DEFINITION ( 'international standard', 'config_control_design', 1994, #83 ) ;
#88 = EDGE_LOOP ( 'NONE', ( #38 ) ) ;
#89 = EDGE_LOOP ( 'NONE', ( #74 ) ) ;
#90 = MANIFOLD_SOLID_BREP ( 'Corps-Déplacer/Copier1[2]', #212 ) ;
#91 = EDGE_LOOP ( 'NONE', ( #55 ) ) ;
#92 = DIRECTION ( 'NONE',  ( 3.491481338843133355E-15, -1.224646799147353207E-16, 1.000000000000000000 ) ) ;
#93 = DIRECTION ( 'NONE',  ( 0.0000000000000000000, -1.000000000000000000, 0.0000000000000000000 ) ) ;
#94 = CARTESIAN_POINT ( 'NONE',  ( -4.275870630573526707E-31, 1.499773526796246047E-32, -1.224658022084773030E-16 ) ) ;
#95 = CONICAL_SURFACE ( 'NONE', #140, 2.400000000000001688, 0.7853981633974453924 ) ;
#96 = ORGANIZATION ( 'UNSPECIFIED', 'UNSPECIFIED', '' ) ;
#97 = CARTESIAN_POINT ( 'NONE',  ( -2.699534206289368204E-30, 7.524489584330192056E-32, -7.731773262702962682E-16 ) ) ;
#98 = VERTEX_POINT ( 'NONE', #35 ) ;
#99 = COORDINATED_UNIVERSAL_TIME_OFFSET ( 1, 0, .AHEAD. ) ;
#100 = CLOSED_SHELL ( 'NONE', ( #104, #123, #40, #197, #145 ) ) ;
#101 = SHAPE_DEFINITION_REPRESENTATION ( #137, #136 ) ;
#102 = COORDINATED_UNIVERSAL_TIME_OFFSET ( 1, 0, .AHEAD. ) ;
#103 = CALENDAR_DATE ( 2021, 8, 12 ) ;
#104 = ADVANCED_FACE ( 'NONE', ( #21, #182 ), #57, .T. ) ;
#105 = CIRCLE ( 'NONE', #144, 2.999999999999998224 ) ;
#106 = CALENDAR_DATE ( 2021, 8, 12 ) ;
#107 = EDGE_CURVE ( 'NONE', #147, #147, #121, .T. ) ;
#108 = ORIENTED_EDGE ( 'NONE', *, *, #14, .F. ) ;
#109 = EDGE_LOOP ( 'NONE', ( #196 ) ) ;
#110 = ORIENTED_EDGE ( 'NONE', *, *, #14, .T. ) ;
#111 = DIRECTION ( 'NONE',  ( 3.491481338843133355E-15, -1.276467311168695266E-16, 1.000000000000000000 ) ) ;
#112 = AXIS2_PLACEMENT_3D ( 'NONE', #44, #184, #42 ) ;
#113 = DIRECTION ( 'NONE',  ( 3.491481338843133355E-15, -1.224646799147353207E-16, 1.000000000000000000 ) ) ;
#114 = CC_DESIGN_PERSON_AND_ORGANIZATION_ASSIGNMENT ( #33, #219, ( #56 ) ) ;
#115 = FACE_OUTER_BOUND ( 'NONE', #223, .T. ) ;
#116 = DIRECTION ( 'NONE',  ( 3.491481338843133355E-15, -1.276467311168695266E-16, 1.000000000000000000 ) ) ;
#117 = PLANE ( 'NONE',  #67 ) ;
#118 = CC_DESIGN_DATE_AND_TIME_ASSIGNMENT ( #143, #206, ( #195 ) ) ;
#119 = CARTESIAN_POINT ( 'NONE',  ( 2.073939915272820834E-13, 2.999999999999993783, 59.39999999999999147 ) ) ;
#120 = PERSON_AND_ORGANIZATION ( #27, #96 ) ;
#121 = CIRCLE ( 'NONE', #153, 3.000000000000001332 ) ;
#122 = PERSON_AND_ORGANIZATION_ROLE ( 'design_supplier' ) ;
#123 = ADVANCED_FACE ( 'NONE', ( #187, #138 ), #95, .T. ) ;
#124 = COORDINATED_UNIVERSAL_TIME_OFFSET ( 1, 0, .AHEAD. ) ;
#125 = EDGE_LOOP ( 'NONE', ( #150 ) ) ;
#126 = ORIENTED_EDGE ( 'NONE', *, *, #177, .F. ) ;
#127 = AXIS2_PLACEMENT_3D ( 'NONE', #132, #113, #75 ) ;
#128 = EDGE_LOOP ( 'NONE', ( #1 ) ) ;
#129 = CC_DESIGN_APPROVAL ( #186, ( #156 ) ) ;
#130 = EDGE_CURVE ( 'NONE', #98, #98, #105, .T. ) ;
#131 = ORIENTED_EDGE ( 'NONE', *, *, #107, .T. ) ;
#132 = CARTESIAN_POINT ( 'NONE',  ( 4.189777606611760026E-14, 2.249639673992780938E-32, 12.00000000000000000 ) ) ;
#133 = AXIS2_PLACEMENT_3D ( 'NONE', #23, #154, #152 ) ;
#134 = ADVANCED_FACE ( 'NONE', ( #135 ), #9, .T. ) ;
#135 = FACE_OUTER_BOUND ( 'NONE', #180, .T. ) ;
#136 = ADVANCED_BREP_SHAPE_REPRESENTATION ( '372649', ( #18, #90, #32 ), #7 ) ;
#137 = PRODUCT_DEFINITION_SHAPE ( 'NONE', 'NONE',  #156 ) ;
#138 = FACE_BOUND ( 'NONE', #89, .T. ) ;
#139 = DIRECTION ( 'NONE',  ( 0.0000000000000000000, 1.000000000000000000, 0.0000000000000000000 ) ) ;
#140 = AXIS2_PLACEMENT_3D ( 'NONE', #62, #170, #139 ) ;
#141 = APPLICATION_CONTEXT ( 'configuration controlled 3d designs of mechanical parts and assemblies' ) ;
#142 = DIRECTION ( 'NONE',  ( 0.0000000000000000000, 0.0000000000000000000, 1.000000000000000000 ) ) ;
#143 = DATE_AND_TIME ( #106, #194 ) ;
#144 = AXIS2_PLACEMENT_3D ( 'NONE', #175, #79, #93 ) ;
#145 = ADVANCED_FACE ( 'NONE', ( #43 ), #46, .F. ) ;
#146 = DATE_AND_TIME ( #103, #181 ) ;
#147 = VERTEX_POINT ( 'NONE', #119 ) ;
#148 = APPROVAL_STATUS ( 'not_yet_approved' ) ;
#149 = CIRCLE ( 'NONE', #17, 2.400000000000001688 ) ;
#150 = ORIENTED_EDGE ( 'NONE', *, *, #210, .F. ) ;
#151 = DIRECTION ( 'NONE',  ( -4.456761796588771413E-31, -1.000000000000000000, -1.276467311168695019E-16 ) ) ;
#152 = DIRECTION ( 'NONE',  ( 4.275831445896958607E-31, 1.000000000000000000, 1.224646799147353454E-16 ) ) ;
#153 = AXIS2_PLACEMENT_3D ( 'NONE', #60, #10, #173 ) ;
#154 = DIRECTION ( 'NONE',  ( -3.491481338843133355E-15, 1.224646799147353207E-16, -1.000000000000000000 ) ) ;
#155 = DIRECTION ( 'NONE',  ( 3.491481338843133355E-15, -1.276467311168695266E-16, 1.000000000000000000 ) ) ;
#156 = PRODUCT_DEFINITION ( 'UNKNOWN', '', #56, #73 ) ;
#157 = PLANE ( 'NONE',  #52 ) ;
#158 = LOCAL_TIME ( 10, 33, 23.00000000000000000, #99 ) ;
#159 = APPROVAL_DATE_TIME ( #15, #61 ) ;
#160 = PERSON_AND_ORGANIZATION ( #27, #96 ) ;
#161 = CC_DESIGN_DATE_AND_TIME_ASSIGNMENT ( #28, #82, ( #156 ) ) ;
#162 = APPROVAL_STATUS ( 'not_yet_approved' ) ;
#163 =( NAMED_UNIT ( * ) SI_UNIT ( $, .STERADIAN. ) SOLID_ANGLE_UNIT ( ) );
#164 = CC_DESIGN_PERSON_AND_ORGANIZATION_ASSIGNMENT ( #209, #122, ( #56 ) ) ;
#165 = EDGE_LOOP ( 'NONE', ( #126 ) ) ;
#166 = ORIENTED_EDGE ( 'NONE', *, *, #130, .F. ) ;
#167 = FACE_OUTER_BOUND ( 'NONE', #125, .T. ) ;
#168 = CONICAL_SURFACE ( 'NONE', #112, 6.500000000000000000, 0.2617993877991502405 ) ;
#169 = AXIS2_PLACEMENT_3D ( 'NONE', #80, #155, #217 ) ;
#170 = DIRECTION ( 'NONE',  ( -3.491481338843133355E-15, 1.224646799147353207E-16, -1.000000000000000000 ) ) ;
#171 = DIRECTION ( 'NONE',  ( 3.491481338843133355E-15, -1.276467311168695266E-16, 1.000000000000000000 ) ) ;
#172 = CARTESIAN_POINT ( 'NONE',  ( 2.094888803305880013E-13, 1.799711739194219277E-32, 60.00000000000000000 ) ) ;
#173 = DIRECTION ( 'NONE',  ( 0.0000000000000000000, 1.000000000000000000, 0.0000000000000000000 ) ) ;
#174 = ADVANCED_FACE ( 'NONE', ( #76, #115 ), #45, .T. ) ;
#175 = CARTESIAN_POINT ( 'NONE',  ( 6.144335469147928612E-14, -2.246336902324792315E-15, 17.59807621135329470 ) ) ;
#176 = VERTEX_POINT ( 'NONE', #190 ) ;
#177 = EDGE_CURVE ( 'NONE', #205, #205, #34, .T. ) ;
#178 = CALENDAR_DATE ( 2021, 8, 12 ) ;
#179 = MECHANICAL_CONTEXT ( 'NONE', #83, 'mechanical' ) ;
#180 = EDGE_LOOP ( 'NONE', ( #110 ) ) ;
#181 = LOCAL_TIME ( 10, 33, 23.00000000000000000, #191 ) ;
#182 = FACE_OUTER_BOUND ( 'NONE', #41, .T. ) ;
#183 = DIRECTION ( 'NONE',  ( 4.275831445896958607E-31, 1.000000000000000000, 1.224646799147353207E-16 ) ) ;
#184 = DIRECTION ( 'NONE',  ( 3.491481338843133355E-15, -1.276467311168695266E-16, 1.000000000000000000 ) ) ;
#185 = DIRECTION ( 'NONE',  ( -3.491481338843133355E-15, 1.224646799147353207E-16, -1.000000000000000000 ) ) ;
#186 = APPROVAL ( #148, 'UNSPECIFIED' ) ;
#187 = FACE_OUTER_BOUND ( 'NONE', #109, .T. ) ;
#188 = CARTESIAN_POINT ( 'NONE',  ( 2.094888803305880013E-13, 2.399999999999994138, 60.00000000000000000 ) ) ;
#189 = PERSON_AND_ORGANIZATION_ROLE ( 'creator' ) ;
#190 = CARTESIAN_POINT ( 'NONE',  ( -3.368048475777682952E-30, -1.499999999999998668, -9.646474229456003855E-16 ) ) ;
#191 = COORDINATED_UNIVERSAL_TIME_OFFSET ( 1, 0, .AHEAD. ) ;
#192 = CALENDAR_DATE ( 2021, 8, 12 ) ;
#193 = PERSON_AND_ORGANIZATION ( #27, #96 ) ;
#194 = LOCAL_TIME ( 10, 33, 23.00000000000000000, #69 ) ;
#195 = SECURITY_CLASSIFICATION ( '', '', #66 ) ;
#196 = ORIENTED_EDGE ( 'NONE', *, *, #107, .F. ) ;
#197 = ADVANCED_FACE ( 'NONE', ( #200, #24 ), #168, .T. ) ;
#198 = ORIENTED_EDGE ( 'NONE', *, *, #130, .T. ) ;
#199 = DIRECTION ( 'NONE',  ( 0.0000000000000000000, 1.000000000000000000, 0.0000000000000000000 ) ) ;
#200 = FACE_BOUND ( 'NONE', #88, .T. ) ;
#201 = CARTESIAN_POINT ( 'NONE',  ( 4.189777606611760026E-14, -1.531760773402434319E-15, 12.00000000000000000 ) ) ;
#202 = UNCERTAINTY_MEASURE_WITH_UNIT (LENGTH_MEASURE( 1.000000000000000082E-05 ), #218, 'distance_accuracy_value', 'NONE');
#203 = DIRECTION ( 'NONE',  ( -4.275831445896958607E-31, -1.000000000000000000, -1.224646799147353207E-16 ) ) ;
#204 = CARTESIAN_POINT ( 'NONE',  ( 4.189777606611760026E-14, -1.531760773402434319E-15, 12.00000000000000000 ) ) ;
#205 = VERTEX_POINT ( 'NONE', #208 ) ;
#206 = DATE_TIME_ROLE ( 'classification_date' ) ;
#207 = PERSON_AND_ORGANIZATION ( #27, #96 ) ;
#208 = CARTESIAN_POINT ( 'NONE',  ( 4.189777606611760026E-14, -1.500000000000000222, 12.00000000000000000 ) ) ;
#209 = PERSON_AND_ORGANIZATION ( #27, #96 ) ;
#210 = EDGE_CURVE ( 'NONE', #176, #176, #49, .T. ) ;
#211 = VERTEX_POINT ( 'NONE', #58 ) ;
#212 = CLOSED_SHELL ( 'NONE', ( #134, #174, #6 ) ) ;
#213 = CIRCLE ( 'NONE', #29, 1.499999999999998668 ) ;
#214 = DIRECTION ( 'NONE',  ( 0.0000000000000000000, -1.000000000000000000, 0.0000000000000000000 ) ) ;
#215 = DIRECTION ( 'NONE',  ( -4.275831445896958607E-31, -1.000000000000000000, -1.224646799147353207E-16 ) ) ;
#216 = PRODUCT ( '372649', '372649', '', ( #179 ) ) ;
#217 = DIRECTION ( 'NONE',  ( -4.456761796588770537E-31, -1.000000000000000000, -1.276467311168695512E-16 ) ) ;
#218 =( LENGTH_UNIT ( ) NAMED_UNIT ( * ) SI_UNIT ( .MILLI., .METRE. ) );
#219 = PERSON_AND_ORGANIZATION_ROLE ( 'creator' ) ;
#220 = PERSON_AND_ORGANIZATION_ROLE ( 'classification_officer' ) ;
#221 = APPROVAL_ROLE ( '' ) ;
#222 = AXIS2_PLACEMENT_3D ( 'NONE', #22, #4, #203 ) ;
#223 = EDGE_LOOP ( 'NONE', ( #108 ) ) ;
ENDSEC;
END-ISO-10303-21;
