ISO-10303-21;
HEADER;
FILE_DESCRIPTION (( 'STEP AP203' ),
    '1' );
FILE_NAME ('372648.step',
    '2021-12-08T09:33:23',
    ( '' ),
    ( '' ),
    'SwSTEP 2.0',
    'SolidWorks 2019',
    '' );
FILE_SCHEMA (( 'CONFIG_CONTROL_DESIGN' ));
ENDSEC;

DATA;
#1 = PERSON_AND_ORGANIZATION ( #125, #117 ) ;
#2 = CLOSED_SHELL ( 'NONE', ( #32, #99, #130, #175, #84 ) ) ;
#3 = EDGE_CURVE ( 'NONE', #163, #163, #165, .T. ) ;
#4 = CC_DESIGN_APPROVAL ( #160, ( #152 ) ) ;
#5 = PERSON_AND_ORGANIZATION_ROLE ( 'design_supplier' ) ;
#6 = ORIENTED_EDGE ( 'NONE', *, *, #13, .T. ) ;
#7 = PERSON_AND_ORGANIZATION ( #125, #117 ) ;
#8 = PRODUCT_RELATED_PRODUCT_CATEGORY ( 'detail', '', ( #217 ) ) ;
#9 = AXIS2_PLACEMENT_3D ( 'NONE', #159, #209, #104 ) ;
#10 = FACE_BOUND ( 'NONE', #171, .T. ) ;
#11 = MANIFOLD_SOLID_BREP ( 'Corps-Déplacer/Copier1[1]', #2 ) ;
#12 = CARTESIAN_POINT ( 'NONE',  ( 1.000667421396370540E-13, -3.658387740909890592E-15, 28.66025403784433578 ) ) ;
#13 = EDGE_CURVE ( 'NONE', #157, #157, #71, .T. ) ;
#14 = FACE_OUTER_BOUND ( 'NONE', #73, .T. ) ;
#15 = APPROVAL_PERSON_ORGANIZATION ( #212, #160, #18 ) ;
#16 = DIRECTION ( 'NONE',  ( 0.0000000000000000000, -1.000000000000000000, 0.0000000000000000000 ) ) ;
#17 = LOCAL_TIME ( 10, 33, 23.00000000000000000, #199 ) ;
#18 = APPROVAL_ROLE ( '' ) ;
#19 = CC_DESIGN_PERSON_AND_ORGANIZATION_ASSIGNMENT ( #25, #5, ( #45 ) ) ;
#20 = AXIS2_PLACEMENT_3D ( 'NONE', #111, #215, #176 ) ;
#21 = AXIS2_PLACEMENT_3D ( 'NONE', #144, #127, #180 ) ;
#22 = DATE_TIME_ROLE ( 'creation_date' ) ;
#23 = ORIENTED_EDGE ( 'NONE', *, *, #3, .F. ) ;
#24 = CC_DESIGN_DATE_AND_TIME_ASSIGNMENT ( #79, #22, ( #152 ) ) ;
#25 = PERSON_AND_ORGANIZATION ( #125, #117 ) ;
#26 = DIRECTION ( 'NONE',  ( -4.275831445896958607E-31, -1.000000000000000000, -1.224646799147353207E-16 ) ) ;
#27 = EDGE_LOOP ( 'NONE', ( #91 ) ) ;
#28 = ORIENTED_EDGE ( 'NONE', *, *, #194, .F. ) ;
#29 = DIRECTION ( 'NONE',  ( -3.491481338843133355E-15, 1.224646799147353207E-16, -1.000000000000000000 ) ) ;
#30 = DIRECTION ( 'NONE',  ( 3.491481338843133355E-15, -1.224646799147353207E-16, 1.000000000000000000 ) ) ;
#31 = DIRECTION ( 'NONE',  ( 0.0000000000000000000, 1.000000000000000000, 0.0000000000000000000 ) ) ;
#32 = ADVANCED_FACE ( 'NONE', ( #90, #96 ), #202, .T. ) ;
#33 = DIRECTION ( 'NONE',  ( 0.0000000000000000000, -1.000000000000000000, 0.0000000000000000000 ) ) ;
#34 = ADVANCED_BREP_SHAPE_REPRESENTATION ( '372648', ( #11, #167, #123 ), #100 ) ;
#35 = CC_DESIGN_PERSON_AND_ORGANIZATION_ASSIGNMENT ( #115, #95, ( #152 ) ) ;
#36 = APPLICATION_CONTEXT ( 'configuration controlled 3d designs of mechanical parts and assemblies' ) ;
#37 = DESIGN_CONTEXT ( 'detailed design', #113, 'design' ) ;
#38 = FACE_OUTER_BOUND ( 'NONE', #218, .T. ) ;
#39 = DATE_AND_TIME ( #187, #203 ) ;
#40 = ORIENTED_EDGE ( 'NONE', *, *, #156, .F. ) ;
#41 = DIRECTION ( 'NONE',  ( 3.491481338843133355E-15, -1.276467311168695266E-16, 1.000000000000000000 ) ) ;
#42 = CARTESIAN_POINT ( 'NONE',  ( 5.446039201379305096E-14, -1.991043440091054150E-15, 15.59807621135330002 ) ) ;
#43 = CIRCLE ( 'NONE', #178, 1.499999999999998668 ) ;
#44 = CARTESIAN_POINT ( 'NONE',  ( -4.275870630573526707E-31, 1.499773526796246047E-32, -1.224658022084773030E-16 ) ) ;
#45 = PRODUCT_DEFINITION_FORMATION_WITH_SPECIFIED_SOURCE ( 'ANY', '', #217, .NOT_KNOWN. ) ;
#46 = EDGE_CURVE ( 'NONE', #83, #83, #43, .T. ) ;
#47 = PLANE ( 'NONE',  #162 ) ;
#48 = VERTEX_POINT ( 'NONE', #62 ) ;
#49 = APPROVAL_STATUS ( 'not_yet_approved' ) ;
#50 = CC_DESIGN_SECURITY_CLASSIFICATION ( #208, ( #45 ) ) ;
#51 = APPLICATION_PROTOCOL_DEFINITION ( 'international standard', 'config_control_design', 1994, #36 ) ;
#52 = CC_DESIGN_PERSON_AND_ORGANIZATION_ASSIGNMENT ( #134, #74, ( #45 ) ) ;
#53 = ORIENTED_EDGE ( 'NONE', *, *, #3, .T. ) ;
#54 = LOCAL_TIME ( 10, 33, 23.00000000000000000, #182 ) ;
#55 = APPROVAL_STATUS ( 'not_yet_approved' ) ;
#56 = DIRECTION ( 'NONE',  ( -3.491481338843133355E-15, 1.224646799147353207E-16, -1.000000000000000000 ) ) ;
#57 = DATE_AND_TIME ( #89, #69 ) ;
#58 = EDGE_LOOP ( 'NONE', ( #201 ) ) ;
#59 = APPROVAL_DATE_TIME ( #39, #128 ) ;
#60 = ORIENTED_EDGE ( 'NONE', *, *, #46, .T. ) ;
#61 = AXIS2_PLACEMENT_3D ( 'NONE', #81, #105, #86 ) ;
#62 = CARTESIAN_POINT ( 'NONE',  ( 2.073939915272820834E-13, 2.999999999999993783, 59.39999999999999147 ) ) ;
#63 =( NAMED_UNIT ( * ) PLANE_ANGLE_UNIT ( ) SI_UNIT ( $, .RADIAN. ) );
#64 = DIRECTION ( 'NONE',  ( 3.491481338843133355E-15, -1.276467311168695266E-16, 1.000000000000000000 ) ) ;
#65 = DIRECTION ( 'NONE',  ( 0.0000000000000000000, 1.000000000000000000, 0.0000000000000000000 ) ) ;
#66 = FACE_OUTER_BOUND ( 'NONE', #220, .T. ) ;
#67 = PERSON_AND_ORGANIZATION_ROLE ( 'design_owner' ) ;
#68 = DATE_AND_TIME ( #164, #106 ) ;
#69 = LOCAL_TIME ( 10, 33, 23.00000000000000000, #214 ) ;
#70 =( NAMED_UNIT ( * ) SI_UNIT ( $, .STERADIAN. ) SOLID_ANGLE_UNIT ( ) );
#71 = CIRCLE ( 'NONE', #173, 1.499999999999998224 ) ;
#72 = PERSON_AND_ORGANIZATION ( #125, #117 ) ;
#73 = EDGE_LOOP ( 'NONE', ( #75 ) ) ;
#74 = PERSON_AND_ORGANIZATION_ROLE ( 'creator' ) ;
#75 = ORIENTED_EDGE ( 'NONE', *, *, #46, .F. ) ;
#76 = CONICAL_SURFACE ( 'NONE', #140, 2.400000000000001688, 0.7853981633974453924 ) ;
#77 = APPROVAL_ROLE ( '' ) ;
#78 = CARTESIAN_POINT ( 'NONE',  ( 2.094888803305880013E-13, -7.347880794884118356E-15, 60.00000000000000000 ) ) ;
#79 = DATE_AND_TIME ( #185, #54 ) ;
#80 = EDGE_LOOP ( 'NONE', ( #155 ) ) ;
#81 = CARTESIAN_POINT ( 'NONE',  ( 3.491481338843133355E-14, 2.249639673992780938E-32, 10.00000000000000000 ) ) ;
#82 = CIRCLE ( 'NONE', #21, 2.400000000000001688 ) ;
#83 = VERTEX_POINT ( 'NONE', #146 ) ;
#84 = ADVANCED_FACE ( 'NONE', ( #38 ), #186, .F. ) ;
#85 = CYLINDRICAL_SURFACE ( 'NONE', #94, 1.499999999999998446 ) ;
#86 = DIRECTION ( 'NONE',  ( -4.275831445896958607E-31, -1.000000000000000000, -1.224646799147353207E-16 ) ) ;
#87 = COORDINATED_UNIVERSAL_TIME_OFFSET ( 1, 0, .AHEAD. ) ;
#88 = CARTESIAN_POINT ( 'NONE',  ( 0.0000000000000000000, 0.0000000000000000000, 0.0000000000000000000 ) ) ;
#89 = CALENDAR_DATE ( 2021, 8, 12 ) ;
#90 = FACE_OUTER_BOUND ( 'NONE', #80, .T. ) ;
#91 = ORIENTED_EDGE ( 'NONE', *, *, #103, .T. ) ;
#92 = PERSON_AND_ORGANIZATION ( #125, #117 ) ;
#93 = CARTESIAN_POINT ( 'NONE',  ( 0.0000000000000000000, 0.0000000000000000000, 0.0000000000000000000 ) ) ;
#94 = AXIS2_PLACEMENT_3D ( 'NONE', #207, #206, #158 ) ;
#95 = PERSON_AND_ORGANIZATION_ROLE ( 'creator' ) ;
#96 = FACE_OUTER_BOUND ( 'NONE', #58, .T. ) ;
#97 = EDGE_LOOP ( 'NONE', ( #28 ) ) ;
#98 =( LENGTH_UNIT ( ) NAMED_UNIT ( * ) SI_UNIT ( .MILLI., .METRE. ) );
#99 = ADVANCED_FACE ( 'NONE', ( #172, #10 ), #76, .T. ) ;
#100 =( GEOMETRIC_REPRESENTATION_CONTEXT ( 3 ) GLOBAL_UNCERTAINTY_ASSIGNED_CONTEXT ( ( #133 ) ) GLOBAL_UNIT_ASSIGNED_CONTEXT ( ( #98, #63, #70 ) ) REPRESENTATION_CONTEXT ( 'NONE', 'WORKASPACE' ) );
#101 = DIRECTION ( 'NONE',  ( -3.491481338843133355E-15, 1.224646799147353207E-16, -1.000000000000000000 ) ) ;
#102 = CARTESIAN_POINT ( 'NONE',  ( 2.073939915272820834E-13, -7.274401986935278213E-15, 59.39999999999999147 ) ) ;
#103 = EDGE_CURVE ( 'NONE', #211, #211, #108, .T. ) ;
#104 = DIRECTION ( 'NONE',  ( 4.275831445896958607E-31, 1.000000000000000000, 1.224646799147353207E-16 ) ) ;
#105 = DIRECTION ( 'NONE',  ( 3.491481338843133355E-15, -1.224646799147353207E-16, 1.000000000000000000 ) ) ;
#106 = LOCAL_TIME ( 10, 33, 23.00000000000000000, #87 ) ;
#107 = MECHANICAL_CONTEXT ( 'NONE', #36, 'mechanical' ) ;
#108 = CIRCLE ( 'NONE', #145, 2.999999999999998224 ) ;
#109 = CC_DESIGN_PERSON_AND_ORGANIZATION_ASSIGNMENT ( #1, #67, ( #217 ) ) ;
#110 = CALENDAR_DATE ( 2021, 8, 12 ) ;
#111 = CARTESIAN_POINT ( 'NONE',  ( 3.491481338843133355E-14, -1.276467311168695364E-15, 10.00000000000000000 ) ) ;
#112 = EDGE_LOOP ( 'NONE', ( #40 ) ) ;
#113 = APPLICATION_CONTEXT ( 'configuration controlled 3d designs of mechanical parts and assemblies' ) ;
#114 = ORIENTED_EDGE ( 'NONE', *, *, #13, .F. ) ;
#115 = PERSON_AND_ORGANIZATION ( #125, #117 ) ;
#116 = EDGE_LOOP ( 'NONE', ( #60 ) ) ;
#117 = ORGANIZATION ( 'UNSPECIFIED', 'UNSPECIFIED', '' ) ;
#118 = CARTESIAN_POINT ( 'NONE',  ( 3.491481338843133355E-14, 2.249639673992780938E-32, 10.00000000000000000 ) ) ;
#119 = CARTESIAN_POINT ( 'NONE',  ( 5.446039201379305096E-14, -3.000000000000000444, 15.59807621135330002 ) ) ;
#120 = ADVANCED_FACE ( 'NONE', ( #177, #122 ), #85, .T. ) ;
#121 = PRODUCT_DEFINITION_SHAPE ( 'NONE', 'NONE',  #152 ) ;
#122 = FACE_OUTER_BOUND ( 'NONE', #153, .T. ) ;
#123 = AXIS2_PLACEMENT_3D ( 'NONE', #88, #131, #195 ) ;
#124 = PLANE ( 'NONE',  #61 ) ;
#125 = PERSON ( 'UNSPECIFIED', 'UNSPECIFIED', 'UNSPECIFIED', ('UNSPECIFIED'), ('UNSPECIFIED'), ('UNSPECIFIED') ) ;
#126 = FACE_OUTER_BOUND ( 'NONE', #27, .T. ) ;
#127 = DIRECTION ( 'NONE',  ( -3.491481338843133355E-15, 1.224646799147353207E-16, -1.000000000000000000 ) ) ;
#128 = APPROVAL ( #137, 'UNSPECIFIED' ) ;
#129 = APPROVAL_PERSON_ORGANIZATION ( #7, #184, #77 ) ;
#130 = ADVANCED_FACE ( 'NONE', ( #193 ), #190, .F. ) ;
#131 = DIRECTION ( 'NONE',  ( 0.0000000000000000000, 0.0000000000000000000, 1.000000000000000000 ) ) ;
#132 = DIRECTION ( 'NONE',  ( 4.275831445896958607E-31, 1.000000000000000000, 1.224646799147353454E-16 ) ) ;
#133 = UNCERTAINTY_MEASURE_WITH_UNIT (LENGTH_MEASURE( 1.000000000000000082E-05 ), #98, 'distance_accuracy_value', 'NONE');
#134 = PERSON_AND_ORGANIZATION ( #125, #117 ) ;
#135 = CARTESIAN_POINT ( 'NONE',  ( -2.699534206289368204E-30, 7.524489584330192056E-32, -7.731773262702962682E-16 ) ) ;
#136 = AXIS2_PLACEMENT_3D ( 'NONE', #93, #56, #132 ) ;
#137 = APPROVAL_STATUS ( 'not_yet_approved' ) ;
#138 = APPROVAL_DATE_TIME ( #57, #184 ) ;
#139 = CARTESIAN_POINT ( 'NONE',  ( 3.491481338843133355E-14, -1.276467311168695364E-15, 10.00000000000000000 ) ) ;
#140 = AXIS2_PLACEMENT_3D ( 'NONE', #78, #101, #65 ) ;
#141 = ADVANCED_FACE ( 'NONE', ( #14 ), #47, .F. ) ;
#142 = VERTEX_POINT ( 'NONE', #205 ) ;
#143 = DIRECTION ( 'NONE',  ( -3.491481338843133355E-15, 1.276467311168695266E-16, -1.000000000000000000 ) ) ;
#144 = CARTESIAN_POINT ( 'NONE',  ( 2.094888803305880013E-13, -7.347880794884118356E-15, 60.00000000000000000 ) ) ;
#145 = AXIS2_PLACEMENT_3D ( 'NONE', #42, #143, #16 ) ;
#146 = CARTESIAN_POINT ( 'NONE',  ( -3.368048475777682952E-30, -1.499999999999998668, -9.646474229456003855E-16 ) ) ;
#147 = APPLICATION_PROTOCOL_DEFINITION ( 'international standard', 'config_control_design', 1994, #113 ) ;
#148 = CLOSED_SHELL ( 'NONE', ( #210, #120, #141 ) ) ;
#149 = APPROVAL_DATE_TIME ( #68, #160 ) ;
#150 = DIRECTION ( 'NONE',  ( 3.491481338843133355E-15, -1.276467311168695266E-16, 1.000000000000000000 ) ) ;
#151 = EDGE_LOOP ( 'NONE', ( #53 ) ) ;
#152 = PRODUCT_DEFINITION ( 'UNKNOWN', '', #45, #37 ) ;
#153 = EDGE_LOOP ( 'NONE', ( #114 ) ) ;
#154 = PERSON_AND_ORGANIZATION_ROLE ( 'classification_officer' ) ;
#155 = ORIENTED_EDGE ( 'NONE', *, *, #156, .T. ) ;
#156 = EDGE_CURVE ( 'NONE', #48, #48, #204, .T. ) ;
#157 = VERTEX_POINT ( 'NONE', #192 ) ;
#158 = DIRECTION ( 'NONE',  ( -4.456761796588770537E-31, -1.000000000000000000, -1.276467311168695512E-16 ) ) ;
#159 = CARTESIAN_POINT ( 'NONE',  ( 2.094888803305880013E-13, 1.799711739194219277E-32, 60.00000000000000000 ) ) ;
#160 = APPROVAL ( #49, 'UNSPECIFIED' ) ;
#161 = AXIS2_PLACEMENT_3D ( 'NONE', #118, #196, #26 ) ;
#162 = AXIS2_PLACEMENT_3D ( 'NONE', #44, #30, #179 ) ;
#163 = VERTEX_POINT ( 'NONE', #223 ) ;
#164 = CALENDAR_DATE ( 2021, 8, 12 ) ;
#165 = CIRCLE ( 'NONE', #20, 1.499999999999998224 ) ;
#166 = AXIS2_PLACEMENT_3D ( 'NONE', #12, #64, #33 ) ;
#167 = MANIFOLD_SOLID_BREP ( 'Corps-Déplacer/Copier1[2]', #148 ) ;
#168 = COORDINATED_UNIVERSAL_TIME_OFFSET ( 1, 0, .AHEAD. ) ;
#169 = ORIENTED_EDGE ( 'NONE', *, *, #194, .T. ) ;
#170 = CC_DESIGN_DATE_AND_TIME_ASSIGNMENT ( #219, #174, ( #208 ) ) ;
#171 = EDGE_LOOP ( 'NONE', ( #169 ) ) ;
#172 = FACE_OUTER_BOUND ( 'NONE', #112, .T. ) ;
#173 = AXIS2_PLACEMENT_3D ( 'NONE', #139, #150, #188 ) ;
#174 = DATE_TIME_ROLE ( 'classification_date' ) ;
#175 = ADVANCED_FACE ( 'NONE', ( #221, #126 ), #222, .T. ) ;
#176 = DIRECTION ( 'NONE',  ( 0.0000000000000000000, -1.000000000000000000, 0.0000000000000000000 ) ) ;
#177 = FACE_OUTER_BOUND ( 'NONE', #116, .T. ) ;
#178 = AXIS2_PLACEMENT_3D ( 'NONE', #135, #41, #198 ) ;
#179 = DIRECTION ( 'NONE',  ( -4.275831445896958607E-31, -1.000000000000000000, -1.224646799147353207E-16 ) ) ;
#180 = DIRECTION ( 'NONE',  ( 0.0000000000000000000, 1.000000000000000000, 0.0000000000000000000 ) ) ;
#181 = CC_DESIGN_PERSON_AND_ORGANIZATION_ASSIGNMENT ( #92, #154, ( #208 ) ) ;
#182 = COORDINATED_UNIVERSAL_TIME_OFFSET ( 1, 0, .AHEAD. ) ;
#183 = CC_DESIGN_APPROVAL ( #184, ( #45 ) ) ;
#184 = APPROVAL ( #55, 'UNSPECIFIED' ) ;
#185 = CALENDAR_DATE ( 2021, 8, 12 ) ;
#186 = PLANE ( 'NONE',  #161 ) ;
#187 = CALENDAR_DATE ( 2021, 8, 12 ) ;
#188 = DIRECTION ( 'NONE',  ( 0.0000000000000000000, -1.000000000000000000, 0.0000000000000000000 ) ) ;
#189 = CC_DESIGN_APPROVAL ( #128, ( #208 ) ) ;
#190 = PLANE ( 'NONE',  #9 ) ;
#191 = AXIS2_PLACEMENT_3D ( 'NONE', #102, #29, #31 ) ;
#192 = CARTESIAN_POINT ( 'NONE',  ( 3.491481338843133355E-14, -1.499999999999999556, 10.00000000000000000 ) ) ;
#193 = FACE_OUTER_BOUND ( 'NONE', #97, .T. ) ;
#194 = EDGE_CURVE ( 'NONE', #142, #142, #82, .T. ) ;
#195 = DIRECTION ( 'NONE',  ( 1.000000000000000000, 0.0000000000000000000, 0.0000000000000000000 ) ) ;
#196 = DIRECTION ( 'NONE',  ( 3.491481338843133355E-15, -1.224646799147353207E-16, 1.000000000000000000 ) ) ;
#197 = SECURITY_CLASSIFICATION_LEVEL ( 'unclassified' ) ;
#198 = DIRECTION ( 'NONE',  ( -4.456761796588771413E-31, -1.000000000000000000, -1.276467311168695019E-16 ) ) ;
#199 = COORDINATED_UNIVERSAL_TIME_OFFSET ( 1, 0, .AHEAD. ) ;
#200 = APPROVAL_ROLE ( '' ) ;
#201 = ORIENTED_EDGE ( 'NONE', *, *, #103, .F. ) ;
#202 = CYLINDRICAL_SURFACE ( 'NONE', #136, 2.999999999999998224 ) ;
#203 = LOCAL_TIME ( 10, 33, 23.00000000000000000, #168 ) ;
#204 = CIRCLE ( 'NONE', #191, 3.000000000000001332 ) ;
#205 = CARTESIAN_POINT ( 'NONE',  ( 2.094888803305880013E-13, 2.399999999999994138, 60.00000000000000000 ) ) ;
#206 = DIRECTION ( 'NONE',  ( 3.491481338843133355E-15, -1.276467311168695266E-16, 1.000000000000000000 ) ) ;
#207 = CARTESIAN_POINT ( 'NONE',  ( -6.413839710158237013E-31, 0.0000000000000000000, -1.836996703606440502E-16 ) ) ;
#208 = SECURITY_CLASSIFICATION ( '', '', #197 ) ;
#209 = DIRECTION ( 'NONE',  ( -3.491481338843133355E-15, 1.224646799147353207E-16, -1.000000000000000000 ) ) ;
#210 = ADVANCED_FACE ( 'NONE', ( #66 ), #124, .T. ) ;
#211 = VERTEX_POINT ( 'NONE', #119 ) ;
#212 = PERSON_AND_ORGANIZATION ( #125, #117 ) ;
#213 = APPROVAL_PERSON_ORGANIZATION ( #72, #128, #200 ) ;
#214 = COORDINATED_UNIVERSAL_TIME_OFFSET ( 1, 0, .AHEAD. ) ;
#215 = DIRECTION ( 'NONE',  ( 3.491481338843133355E-15, -1.276467311168695266E-16, 1.000000000000000000 ) ) ;
#216 = SHAPE_DEFINITION_REPRESENTATION ( #121, #34 ) ;
#217 = PRODUCT ( '372648', '372648', '', ( #107 ) ) ;
#218 = EDGE_LOOP ( 'NONE', ( #23 ) ) ;
#219 = DATE_AND_TIME ( #110, #17 ) ;
#220 = EDGE_LOOP ( 'NONE', ( #6 ) ) ;
#221 = FACE_BOUND ( 'NONE', #151, .T. ) ;
#222 = CONICAL_SURFACE ( 'NONE', #166, 6.499999999999999112, 0.2617993877991501850 ) ;
#223 = CARTESIAN_POINT ( 'NONE',  ( 3.491481338843133355E-14, -1.499999999999999556, 10.00000000000000000 ) ) ;
ENDSEC;
END-ISO-10303-21;
