ISO-10303-21;
HEADER;
FILE_DESCRIPTION (( 'STEP AP203' ),
    '1' );
FILE_NAME ('372647.step',
    '2021-12-08T09:33:22',
    ( '' ),
    ( '' ),
    'SwSTEP 2.0',
    'SolidWorks 2019',
    '' );
FILE_SCHEMA (( 'CONFIG_CONTROL_DESIGN' ));
ENDSEC;

DATA;
#1 = PLANE ( 'NONE',  #132 ) ;
#2 = DATE_TIME_ROLE ( 'creation_date' ) ;
#3 = VERTEX_POINT ( 'NONE', #141 ) ;
#4 = EDGE_LOOP ( 'NONE', ( #82 ) ) ;
#5 = ADVANCED_BREP_SHAPE_REPRESENTATION ( '372647', ( #180, #34, #35 ), #94 ) ;
#6 = SECURITY_CLASSIFICATION ( '', '', #10 ) ;
#7 = CYLINDRICAL_SURFACE ( 'NONE', #189, 2.999999999999997335 ) ;
#8 = DIRECTION ( 'NONE',  ( -4.275831445896958607E-31, -1.000000000000000000, -1.224646799147353207E-16 ) ) ;
#9 = APPROVAL_PERSON_ORGANIZATION ( #44, #15, #121 ) ;
#10 = SECURITY_CLASSIFICATION_LEVEL ( 'unclassified' ) ;
#11 = CARTESIAN_POINT ( 'NONE',  ( 1.724791781388508004E-13, 2.999999999999993783, 49.39999999999999858 ) ) ;
#12 = DIRECTION ( 'NONE',  ( -3.491481338843133355E-15, 1.224646799147353207E-16, -1.000000000000000000 ) ) ;
#13 = EDGE_LOOP ( 'NONE', ( #167 ) ) ;
#14 = DIRECTION ( 'NONE',  ( 0.0000000000000000000, -1.000000000000000000, 0.0000000000000000000 ) ) ;
#15 = APPROVAL ( #217, 'UNSPECIFIED' ) ;
#16 = FACE_OUTER_BOUND ( 'NONE', #147, .T. ) ;
#17 = COORDINATED_UNIVERSAL_TIME_OFFSET ( 1, 0, .AHEAD. ) ;
#18 = ORIENTED_EDGE ( 'NONE', *, *, #112, .T. ) ;
#19 = ORIENTED_EDGE ( 'NONE', *, *, #114, .F. ) ;
#20 = ORGANIZATION ( 'UNSPECIFIED', 'UNSPECIFIED', '' ) ;
#21 = APPROVAL ( #206, 'UNSPECIFIED' ) ;
#22 = CARTESIAN_POINT ( 'NONE',  ( 3.491481338843133355E-14, -1.499999999999999556, 10.00000000000000000 ) ) ;
#23 =( NAMED_UNIT ( * ) PLANE_ANGLE_UNIT ( ) SI_UNIT ( $, .RADIAN. ) );
#24 = DIRECTION ( 'NONE',  ( -3.491481338843133355E-15, 1.224646799147353207E-16, -1.000000000000000000 ) ) ;
#25 = ADVANCED_FACE ( 'NONE', ( #89, #63 ), #7, .T. ) ;
#26 = CALENDAR_DATE ( 2021, 8, 12 ) ;
#27 = AXIS2_PLACEMENT_3D ( 'NONE', #200, #205, #48 ) ;
#28 = ADVANCED_FACE ( 'NONE', ( #207, #149 ), #188, .T. ) ;
#29 = AXIS2_PLACEMENT_3D ( 'NONE', #36, #101, #60 ) ;
#30 = CARTESIAN_POINT ( 'NONE',  ( 5.446039201379303834E-14, -1.991043440091053361E-15, 15.59807621135329647 ) ) ;
#31 = CC_DESIGN_PERSON_AND_ORGANIZATION_ASSIGNMENT ( #144, #54, ( #78 ) ) ;
#32 = CARTESIAN_POINT ( 'NONE',  ( 3.491481338843133355E-14, -1.276467311168695364E-15, 10.00000000000000000 ) ) ;
#33 = CARTESIAN_POINT ( 'NONE',  ( 0.0000000000000000000, 0.0000000000000000000, 0.0000000000000000000 ) ) ;
#34 = MANIFOLD_SOLID_BREP ( 'Corps-Déplacer/Copier1[2]', #171 ) ;
#35 = AXIS2_PLACEMENT_3D ( 'NONE', #33, #65, #208 ) ;
#36 = CARTESIAN_POINT ( 'NONE',  ( 3.491481338843133355E-14, -1.276467311168695364E-15, 10.00000000000000000 ) ) ;
#37 = CALENDAR_DATE ( 2021, 8, 12 ) ;
#38 = DIRECTION ( 'NONE',  ( 3.491481338843133355E-15, -1.276467311168695266E-16, 1.000000000000000000 ) ) ;
#39 = VERTEX_POINT ( 'NONE', #173 ) ;
#40 = LOCAL_TIME ( 10, 33, 22.00000000000000000, #71 ) ;
#41 = COORDINATED_UNIVERSAL_TIME_OFFSET ( 1, 0, .AHEAD. ) ;
#42 = DIRECTION ( 'NONE',  ( 0.0000000000000000000, 1.000000000000000000, 0.0000000000000000000 ) ) ;
#43 = CIRCLE ( 'NONE', #77, 2.999999999999997335 ) ;
#44 = PERSON_AND_ORGANIZATION ( #129, #20 ) ;
#45 = CARTESIAN_POINT ( 'NONE',  ( 3.491481338843133355E-14, 2.249639673992780938E-32, 10.00000000000000000 ) ) ;
#46 = AXIS2_PLACEMENT_3D ( 'NONE', #153, #24, #90 ) ;
#47 = APPLICATION_PROTOCOL_DEFINITION ( 'international standard', 'config_control_design', 1994, #97 ) ;
#48 = DIRECTION ( 'NONE',  ( -4.275831445896958607E-31, -1.000000000000000000, -1.224646799147353207E-16 ) ) ;
#49 = COORDINATED_UNIVERSAL_TIME_OFFSET ( 1, 0, .AHEAD. ) ;
#50 = EDGE_LOOP ( 'NONE', ( #213 ) ) ;
#51 = ADVANCED_FACE ( 'NONE', ( #105 ), #170, .T. ) ;
#52 = CARTESIAN_POINT ( 'NONE',  ( -6.413839710158237013E-31, 0.0000000000000000000, -1.836996703606440502E-16 ) ) ;
#53 = AXIS2_PLACEMENT_3D ( 'NONE', #52, #38, #84 ) ;
#54 = PERSON_AND_ORGANIZATION_ROLE ( 'creator' ) ;
#55 = ADVANCED_FACE ( 'NONE', ( #176, #107 ), #156, .T. ) ;
#56 = DIRECTION ( 'NONE',  ( -3.491481338843133355E-15, 1.224646799147353207E-16, -1.000000000000000000 ) ) ;
#57 = CALENDAR_DATE ( 2021, 8, 12 ) ;
#58 = DIRECTION ( 'NONE',  ( -4.275831445896958607E-31, -1.000000000000000000, -1.224646799147353207E-16 ) ) ;
#59 = MECHANICAL_CONTEXT ( 'NONE', #97, 'mechanical' ) ;
#60 = DIRECTION ( 'NONE',  ( 0.0000000000000000000, -1.000000000000000000, 0.0000000000000000000 ) ) ;
#61 = DATE_AND_TIME ( #81, #99 ) ;
#62 = AXIS2_PLACEMENT_3D ( 'NONE', #69, #56, #42 ) ;
#63 = FACE_OUTER_BOUND ( 'NONE', #50, .T. ) ;
#64 = PERSON_AND_ORGANIZATION ( #129, #20 ) ;
#65 = DIRECTION ( 'NONE',  ( 0.0000000000000000000, 0.0000000000000000000, 1.000000000000000000 ) ) ;
#66 = EDGE_LOOP ( 'NONE', ( #190 ) ) ;
#67 = EDGE_LOOP ( 'NONE', ( #116 ) ) ;
#68 = LOCAL_TIME ( 10, 33, 22.00000000000000000, #41 ) ;
#69 = CARTESIAN_POINT ( 'NONE',  ( 1.724791781388508004E-13, -6.049755187787925154E-15, 49.39999999999999858 ) ) ;
#70 = LOCAL_TIME ( 10, 33, 22.00000000000000000, #49 ) ;
#71 = COORDINATED_UNIVERSAL_TIME_OFFSET ( 1, 0, .AHEAD. ) ;
#72 = EDGE_CURVE ( 'NONE', #79, #79, #83, .T. ) ;
#73 = PERSON_AND_ORGANIZATION ( #129, #20 ) ;
#74 = CC_DESIGN_PERSON_AND_ORGANIZATION_ASSIGNMENT ( #195, #216, ( #100 ) ) ;
#75 = FACE_OUTER_BOUND ( 'NONE', #4, .T. ) ;
#76 = VERTEX_POINT ( 'NONE', #145 ) ;
#77 = AXIS2_PLACEMENT_3D ( 'NONE', #30, #186, #96 ) ;
#78 = PRODUCT_DEFINITION ( 'UNKNOWN', '', #100, #193 ) ;
#79 = VERTEX_POINT ( 'NONE', #11 ) ;
#80 = PRODUCT_DEFINITION_SHAPE ( 'NONE', 'NONE',  #78 ) ;
#81 = CALENDAR_DATE ( 2021, 8, 12 ) ;
#82 = ORIENTED_EDGE ( 'NONE', *, *, #112, .F. ) ;
#83 = CIRCLE ( 'NONE', #62, 3.000000000000000000 ) ;
#84 = DIRECTION ( 'NONE',  ( -4.456761796588770537E-31, -1.000000000000000000, -1.276467311168695512E-16 ) ) ;
#85 = PERSON_AND_ORGANIZATION ( #129, #20 ) ;
#86 =( LENGTH_UNIT ( ) NAMED_UNIT ( * ) SI_UNIT ( .MILLI., .METRE. ) );
#87 = APPROVAL_STATUS ( 'not_yet_approved' ) ;
#88 = EDGE_LOOP ( 'NONE', ( #18 ) ) ;
#89 = FACE_OUTER_BOUND ( 'NONE', #150, .T. ) ;
#90 = DIRECTION ( 'NONE',  ( 0.0000000000000000000, 1.000000000000000000, 0.0000000000000000000 ) ) ;
#91 = PERSON_AND_ORGANIZATION_ROLE ( 'design_supplier' ) ;
#92 = DATE_AND_TIME ( #57, #203 ) ;
#93 = CLOSED_SHELL ( 'NONE', ( #25, #55, #103, #218, #98 ) ) ;
#94 =( GEOMETRIC_REPRESENTATION_CONTEXT ( 3 ) GLOBAL_UNCERTAINTY_ASSIGNED_CONTEXT ( ( #120 ) ) GLOBAL_UNIT_ASSIGNED_CONTEXT ( ( #86, #23, #219 ) ) REPRESENTATION_CONTEXT ( 'NONE', 'WORKASPACE' ) );
#95 = FACE_BOUND ( 'NONE', #66, .T. ) ;
#96 = DIRECTION ( 'NONE',  ( 0.0000000000000000000, -1.000000000000000000, 0.0000000000000000000 ) ) ;
#97 = APPLICATION_CONTEXT ( 'configuration controlled 3d designs of mechanical parts and assemblies' ) ;
#98 = ADVANCED_FACE ( 'NONE', ( #222 ), #1, .F. ) ;
#99 = LOCAL_TIME ( 10, 33, 22.00000000000000000, #17 ) ;
#100 = PRODUCT_DEFINITION_FORMATION_WITH_SPECIFIED_SOURCE ( 'ANY', '', #201, .NOT_KNOWN. ) ;
#101 = DIRECTION ( 'NONE',  ( 3.491481338843133355E-15, -1.276467311168695266E-16, 1.000000000000000000 ) ) ;
#102 = APPROVAL_ROLE ( '' ) ;
#103 = ADVANCED_FACE ( 'NONE', ( #223 ), #185, .F. ) ;
#104 = AXIS2_PLACEMENT_3D ( 'NONE', #161, #12, #183 ) ;
#105 = FACE_OUTER_BOUND ( 'NONE', #67, .T. ) ;
#106 = CC_DESIGN_PERSON_AND_ORGANIZATION_ASSIGNMENT ( #85, #146, ( #201 ) ) ;
#107 = FACE_BOUND ( 'NONE', #174, .T. ) ;
#108 = CC_DESIGN_PERSON_AND_ORGANIZATION_ASSIGNMENT ( #73, #91, ( #100 ) ) ;
#109 = COORDINATED_UNIVERSAL_TIME_OFFSET ( 1, 0, .AHEAD. ) ;
#110 = DIRECTION ( 'NONE',  ( 3.491481338843133355E-15, -1.224646799147353207E-16, 1.000000000000000000 ) ) ;
#111 = DIRECTION ( 'NONE',  ( 3.491481338843133355E-15, -1.276467311168695266E-16, 1.000000000000000000 ) ) ;
#112 = EDGE_CURVE ( 'NONE', #76, #76, #152, .T. ) ;
#113 = AXIS2_PLACEMENT_3D ( 'NONE', #182, #184, #14 ) ;
#114 = EDGE_CURVE ( 'NONE', #3, #3, #211, .T. ) ;
#115 = EDGE_LOOP ( 'NONE', ( #19 ) ) ;
#116 = ORIENTED_EDGE ( 'NONE', *, *, #114, .T. ) ;
#117 = DIRECTION ( 'NONE',  ( 4.275831445896958607E-31, 1.000000000000000000, 1.224646799147353207E-16 ) ) ;
#118 = CIRCLE ( 'NONE', #140, 2.400000000000000355 ) ;
#119 = CALENDAR_DATE ( 2021, 8, 12 ) ;
#120 = UNCERTAINTY_MEASURE_WITH_UNIT (LENGTH_MEASURE( 1.000000000000000082E-05 ), #86, 'distance_accuracy_value', 'NONE');
#121 = APPROVAL_ROLE ( '' ) ;
#122 = EDGE_CURVE ( 'NONE', #221, #221, #118, .T. ) ;
#123 = AXIS2_PLACEMENT_3D ( 'NONE', #32, #202, #130 ) ;
#124 = SHAPE_DEFINITION_REPRESENTATION ( #80, #5 ) ;
#125 = CC_DESIGN_SECURITY_CLASSIFICATION ( #6, ( #100 ) ) ;
#126 = EDGE_CURVE ( 'NONE', #39, #39, #43, .T. ) ;
#127 = AXIS2_PLACEMENT_3D ( 'NONE', #215, #194, #8 ) ;
#128 = CARTESIAN_POINT ( 'NONE',  ( 1.745740669421566678E-13, -6.123233995736766085E-15, 50.00000000000000000 ) ) ;
#129 = PERSON ( 'UNSPECIFIED', 'UNSPECIFIED', 'UNSPECIFIED', ('UNSPECIFIED'), ('UNSPECIFIED'), ('UNSPECIFIED') ) ;
#130 = DIRECTION ( 'NONE',  ( 0.0000000000000000000, -1.000000000000000000, 0.0000000000000000000 ) ) ;
#131 = PERSON_AND_ORGANIZATION ( #129, #20 ) ;
#132 = AXIS2_PLACEMENT_3D ( 'NONE', #45, #110, #58 ) ;
#133 = APPROVAL_DATE_TIME ( #61, #21 ) ;
#134 = CARTESIAN_POINT ( 'NONE',  ( 0.0000000000000000000, 0.0000000000000000000, 0.0000000000000000000 ) ) ;
#135 = DATE_AND_TIME ( #37, #70 ) ;
#136 = PERSON_AND_ORGANIZATION ( #129, #20 ) ;
#137 = APPROVAL_PERSON_ORGANIZATION ( #64, #204, #187 ) ;
#138 = APPROVAL_DATE_TIME ( #177, #15 ) ;
#139 = CC_DESIGN_PERSON_AND_ORGANIZATION_ASSIGNMENT ( #136, #179, ( #6 ) ) ;
#140 = AXIS2_PLACEMENT_3D ( 'NONE', #128, #142, #157 ) ;
#141 = CARTESIAN_POINT ( 'NONE',  ( 3.491481338843133355E-14, -1.499999999999999556, 10.00000000000000000 ) ) ;
#142 = DIRECTION ( 'NONE',  ( -3.491481338843133355E-15, 1.224646799147353207E-16, -1.000000000000000000 ) ) ;
#143 = DIRECTION ( 'NONE',  ( -4.456761796588771413E-31, -1.000000000000000000, -1.276467311168695019E-16 ) ) ;
#144 = PERSON_AND_ORGANIZATION ( #129, #20 ) ;
#145 = CARTESIAN_POINT ( 'NONE',  ( -3.368048475777682952E-30, -1.499999999999998668, -9.646474229456003855E-16 ) ) ;
#146 = PERSON_AND_ORGANIZATION_ROLE ( 'design_owner' ) ;
#147 = EDGE_LOOP ( 'NONE', ( #166 ) ) ;
#148 = VERTEX_POINT ( 'NONE', #22 ) ;
#149 = FACE_OUTER_BOUND ( 'NONE', #115, .T. ) ;
#150 = EDGE_LOOP ( 'NONE', ( #192 ) ) ;
#151 = ORIENTED_EDGE ( 'NONE', *, *, #72, .F. ) ;
#152 = CIRCLE ( 'NONE', #199, 1.499999999999998668 ) ;
#153 = CARTESIAN_POINT ( 'NONE',  ( 1.745740669421566678E-13, -6.123233995736766085E-15, 50.00000000000000000 ) ) ;
#154 = APPLICATION_CONTEXT ( 'configuration controlled 3d designs of mechanical parts and assemblies' ) ;
#155 = CC_DESIGN_APPROVAL ( #15, ( #6 ) ) ;
#156 = CONICAL_SURFACE ( 'NONE', #46, 2.400000000000000355, 0.7853981633974453924 ) ;
#157 = DIRECTION ( 'NONE',  ( 0.0000000000000000000, 1.000000000000000000, 0.0000000000000000000 ) ) ;
#158 = CC_DESIGN_DATE_AND_TIME_ASSIGNMENT ( #191, #2, ( #78 ) ) ;
#159 = CARTESIAN_POINT ( 'NONE',  ( -2.699534206289368204E-30, 7.524489584330192056E-32, -7.731773262702962682E-16 ) ) ;
#160 = EDGE_LOOP ( 'NONE', ( #210 ) ) ;
#161 = CARTESIAN_POINT ( 'NONE',  ( 1.745740669421566678E-13, 1.799711739194220098E-32, 50.00000000000000000 ) ) ;
#162 = CC_DESIGN_APPROVAL ( #204, ( #78 ) ) ;
#163 = ADVANCED_FACE ( 'NONE', ( #75 ), #164, .F. ) ;
#164 = PLANE ( 'NONE',  #27 ) ;
#165 = APPLICATION_PROTOCOL_DEFINITION ( 'international standard', 'config_control_design', 1994, #154 ) ;
#166 = ORIENTED_EDGE ( 'NONE', *, *, #126, .T. ) ;
#167 = ORIENTED_EDGE ( 'NONE', *, *, #214, .F. ) ;
#168 = PRODUCT_RELATED_PRODUCT_CATEGORY ( 'detail', '', ( #201 ) ) ;
#169 = CIRCLE ( 'NONE', #29, 1.499999999999998224 ) ;
#170 = PLANE ( 'NONE',  #127 ) ;
#171 = CLOSED_SHELL ( 'NONE', ( #51, #28, #163 ) ) ;
#172 = EDGE_LOOP ( 'NONE', ( #151 ) ) ;
#173 = CARTESIAN_POINT ( 'NONE',  ( 5.446039201379303834E-14, -2.999999999999999556, 15.59807621135329647 ) ) ;
#174 = EDGE_LOOP ( 'NONE', ( #178 ) ) ;
#175 = CARTESIAN_POINT ( 'NONE',  ( 1.745740669421566678E-13, 2.399999999999994138, 50.00000000000000000 ) ) ;
#176 = FACE_OUTER_BOUND ( 'NONE', #172, .T. ) ;
#177 = DATE_AND_TIME ( #26, #40 ) ;
#178 = ORIENTED_EDGE ( 'NONE', *, *, #122, .T. ) ;
#179 = PERSON_AND_ORGANIZATION_ROLE ( 'classification_officer' ) ;
#180 = MANIFOLD_SOLID_BREP ( 'Corps-Déplacer/Copier1[1]', #93 ) ;
#181 = CONICAL_SURFACE ( 'NONE', #113, 6.499999999999999112, 0.2617993877991501850 ) ;
#182 = CARTESIAN_POINT ( 'NONE',  ( 1.000667421396370540E-13, -3.658387740909890592E-15, 28.66025403784433578 ) ) ;
#183 = DIRECTION ( 'NONE',  ( 4.275831445896958607E-31, 1.000000000000000000, 1.224646799147353207E-16 ) ) ;
#184 = DIRECTION ( 'NONE',  ( 3.491481338843133355E-15, -1.276467311168695266E-16, 1.000000000000000000 ) ) ;
#185 = PLANE ( 'NONE',  #104 ) ;
#186 = DIRECTION ( 'NONE',  ( -3.491481338843133355E-15, 1.276467311168695266E-16, -1.000000000000000000 ) ) ;
#187 = APPROVAL_ROLE ( '' ) ;
#188 = CYLINDRICAL_SURFACE ( 'NONE', #53, 1.499999999999998446 ) ;
#189 = AXIS2_PLACEMENT_3D ( 'NONE', #134, #209, #117 ) ;
#190 = ORIENTED_EDGE ( 'NONE', *, *, #214, .T. ) ;
#191 = DATE_AND_TIME ( #119, #68 ) ;
#192 = ORIENTED_EDGE ( 'NONE', *, *, #72, .T. ) ;
#193 = DESIGN_CONTEXT ( 'detailed design', #154, 'design' ) ;
#194 = DIRECTION ( 'NONE',  ( 3.491481338843133355E-15, -1.224646799147353207E-16, 1.000000000000000000 ) ) ;
#195 = PERSON_AND_ORGANIZATION ( #129, #20 ) ;
#196 = CC_DESIGN_DATE_AND_TIME_ASSIGNMENT ( #92, #197, ( #6 ) ) ;
#197 = DATE_TIME_ROLE ( 'classification_date' ) ;
#198 = APPROVAL_PERSON_ORGANIZATION ( #131, #21, #102 ) ;
#199 = AXIS2_PLACEMENT_3D ( 'NONE', #159, #111, #143 ) ;
#200 = CARTESIAN_POINT ( 'NONE',  ( -4.275870630573526707E-31, 1.499773526796246047E-32, -1.224658022084773030E-16 ) ) ;
#201 = PRODUCT ( '372647', '372647', '', ( #59 ) ) ;
#202 = DIRECTION ( 'NONE',  ( 3.491481338843133355E-15, -1.276467311168695266E-16, 1.000000000000000000 ) ) ;
#203 = LOCAL_TIME ( 10, 33, 22.00000000000000000, #109 ) ;
#204 = APPROVAL ( #87, 'UNSPECIFIED' ) ;
#205 = DIRECTION ( 'NONE',  ( 3.491481338843133355E-15, -1.224646799147353207E-16, 1.000000000000000000 ) ) ;
#206 = APPROVAL_STATUS ( 'not_yet_approved' ) ;
#207 = FACE_OUTER_BOUND ( 'NONE', #88, .T. ) ;
#208 = DIRECTION ( 'NONE',  ( 1.000000000000000000, 0.0000000000000000000, 0.0000000000000000000 ) ) ;
#209 = DIRECTION ( 'NONE',  ( -3.491481338843133355E-15, 1.224646799147353207E-16, -1.000000000000000000 ) ) ;
#210 = ORIENTED_EDGE ( 'NONE', *, *, #122, .F. ) ;
#211 = CIRCLE ( 'NONE', #123, 1.499999999999998224 ) ;
#212 = APPROVAL_DATE_TIME ( #135, #204 ) ;
#213 = ORIENTED_EDGE ( 'NONE', *, *, #126, .F. ) ;
#214 = EDGE_CURVE ( 'NONE', #148, #148, #169, .T. ) ;
#215 = CARTESIAN_POINT ( 'NONE',  ( 3.491481338843133355E-14, 2.249639673992780938E-32, 10.00000000000000000 ) ) ;
#216 = PERSON_AND_ORGANIZATION_ROLE ( 'creator' ) ;
#217 = APPROVAL_STATUS ( 'not_yet_approved' ) ;
#218 = ADVANCED_FACE ( 'NONE', ( #95, #16 ), #181, .T. ) ;
#219 =( NAMED_UNIT ( * ) SI_UNIT ( $, .STERADIAN. ) SOLID_ANGLE_UNIT ( ) );
#220 = CC_DESIGN_APPROVAL ( #21, ( #100 ) ) ;
#221 = VERTEX_POINT ( 'NONE', #175 ) ;
#222 = FACE_OUTER_BOUND ( 'NONE', #13, .T. ) ;
#223 = FACE_OUTER_BOUND ( 'NONE', #160, .T. ) ;
ENDSEC;
END-ISO-10303-21;
