ISO-10303-21;
HEADER;
FILE_DESCRIPTION (( 'STEP AP203' ),
    '1' );
FILE_NAME ('372646.step',
    '2021-12-08T09:33:22',
    ( '' ),
    ( '' ),
    'SwSTEP 2.0',
    'SolidWorks 2019',
    '' );
FILE_SCHEMA (( 'CONFIG_CONTROL_DESIGN' ));
ENDSEC;

DATA;
#1 = AXIS2_PLACEMENT_3D ( 'NONE', #138, #170, #81 ) ;
#2 = DATE_AND_TIME ( #161, #133 ) ;
#3 = ORIENTED_EDGE ( 'NONE', *, *, #214, .F. ) ;
#4 = FACE_OUTER_BOUND ( 'NONE', #182, .T. ) ;
#5 = CC_DESIGN_APPROVAL ( #18, ( #109 ) ) ;
#6 = UNCERTAINTY_MEASURE_WITH_UNIT (LENGTH_MEASURE( 1.000000000000000082E-05 ), #12, 'distance_accuracy_value', 'NONE');
#7 = DIRECTION ( 'NONE',  ( -4.275831445896958607E-31, -1.000000000000000000, -1.224646799147353207E-16 ) ) ;
#8 = ADVANCED_BREP_SHAPE_REPRESENTATION ( '372646', ( #179, #95, #128 ), #70 ) ;
#9 = CARTESIAN_POINT ( 'NONE',  ( 5.237222008264700033E-14, -1.500000000000000888, 15.00000000000000000 ) ) ;
#10 = FACE_OUTER_BOUND ( 'NONE', #115, .T. ) ;
#11 = AXIS2_PLACEMENT_3D ( 'NONE', #134, #148, #36 ) ;
#12 =( LENGTH_UNIT ( ) NAMED_UNIT ( * ) SI_UNIT ( .MILLI., .METRE. ) );
#13 = CONICAL_SURFACE ( 'NONE', #146, 6.500000000000000000, 0.2617993877991501850 ) ;
#14 = APPROVAL_ROLE ( '' ) ;
#15 = PRODUCT_RELATED_PRODUCT_CATEGORY ( 'detail', '', ( #140 ) ) ;
#16 = MECHANICAL_CONTEXT ( 'NONE', #131, 'mechanical' ) ;
#17 = PERSON_AND_ORGANIZATION ( #33, #105 ) ;
#18 = APPROVAL ( #205, 'UNSPECIFIED' ) ;
#19 = CYLINDRICAL_SURFACE ( 'NONE', #85, 1.499999999999998668 ) ;
#20 = AXIS2_PLACEMENT_3D ( 'NONE', #184, #168, #7 ) ;
#21 = EDGE_LOOP ( 'NONE', ( #132 ) ) ;
#22 = CARTESIAN_POINT ( 'NONE',  ( -2.699534206289368204E-30, 7.524489584330192056E-32, -7.731773262702962682E-16 ) ) ;
#23 = DIRECTION ( 'NONE',  ( 4.275831445896958607E-31, 1.000000000000000000, 1.224646799147353207E-16 ) ) ;
#24 = CARTESIAN_POINT ( 'NONE',  ( 5.888741295776756228E-14, -2.000000000000000888, 16.86602540378443393 ) ) ;
#25 = ADVANCED_FACE ( 'NONE', ( #57, #93 ), #19, .T. ) ;
#26 = LOCAL_TIME ( 10, 33, 22.00000000000000000, #143 ) ;
#27 = CARTESIAN_POINT ( 'NONE',  ( -3.368048475777682952E-30, -1.499999999999998668, -9.646474229456003855E-16 ) ) ;
#28 = APPROVAL_ROLE ( '' ) ;
#29 = CC_DESIGN_APPROVAL ( #193, ( #49 ) ) ;
#30 = CARTESIAN_POINT ( 'NONE',  ( 0.0000000000000000000, 0.0000000000000000000, 0.0000000000000000000 ) ) ;
#31 = COORDINATED_UNIVERSAL_TIME_OFFSET ( 1, 0, .AHEAD. ) ;
#32 = DATE_AND_TIME ( #123, #101 ) ;
#33 = PERSON ( 'UNSPECIFIED', 'UNSPECIFIED', 'UNSPECIFIED', ('UNSPECIFIED'), ('UNSPECIFIED'), ('UNSPECIFIED') ) ;
#34 = APPROVAL_PERSON_ORGANIZATION ( #17, #18, #14 ) ;
#35 = ORIENTED_EDGE ( 'NONE', *, *, #46, .T. ) ;
#36 = DIRECTION ( 'NONE',  ( 0.0000000000000000000, -1.000000000000000000, 0.0000000000000000000 ) ) ;
#37 = ORIENTED_EDGE ( 'NONE', *, *, #87, .T. ) ;
#38 = AXIS2_PLACEMENT_3D ( 'NONE', #22, #119, #152 ) ;
#39 = DIRECTION ( 'NONE',  ( 3.491481338843133355E-15, -1.276467311168695266E-16, 1.000000000000000000 ) ) ;
#40 = EDGE_CURVE ( 'NONE', #188, #188, #191, .T. ) ;
#41 = DIRECTION ( 'NONE',  ( 3.491481338843133355E-15, -1.276467311168695266E-16, 1.000000000000000000 ) ) ;
#42 = CARTESIAN_POINT ( 'NONE',  ( 1.745740669421566678E-13, 1.199807826129478012E-32, 50.00000000000000000 ) ) ;
#43 = CLOSED_SHELL ( 'NONE', ( #98, #25, #74 ) ) ;
#44 = DIRECTION ( 'NONE',  ( 3.491481338843133355E-15, -1.224646799147353207E-16, 1.000000000000000000 ) ) ;
#45 = DIRECTION ( 'NONE',  ( -3.491481338843133355E-15, 1.224646799147353207E-16, -1.000000000000000000 ) ) ;
#46 = EDGE_CURVE ( 'NONE', #172, #172, #167, .T. ) ;
#47 = DIRECTION ( 'NONE',  ( 0.0000000000000000000, 1.000000000000000000, 0.0000000000000000000 ) ) ;
#48 = PLANE ( 'NONE',  #54 ) ;
#49 = PRODUCT_DEFINITION ( 'UNKNOWN', '', #185, #60 ) ;
#50 = DIRECTION ( 'NONE',  ( 0.0000000000000000000, 0.0000000000000000000, 1.000000000000000000 ) ) ;
#51 = CIRCLE ( 'NONE', #1, 2.000000000000001332 ) ;
#52 = APPROVAL_DATE_TIME ( #68, #83 ) ;
#53 = SECURITY_CLASSIFICATION_LEVEL ( 'unclassified' ) ;
#54 = AXIS2_PLACEMENT_3D ( 'NONE', #154, #44, #97 ) ;
#55 = CARTESIAN_POINT ( 'NONE',  ( 1.175241488338527082E-13, -4.296621396494237190E-15, 33.66025403784433223 ) ) ;
#56 = CC_DESIGN_DATE_AND_TIME_ASSIGNMENT ( #2, #104, ( #49 ) ) ;
#57 = FACE_OUTER_BOUND ( 'NONE', #92, .T. ) ;
#58 = ORIENTED_EDGE ( 'NONE', *, *, #40, .F. ) ;
#59 = CC_DESIGN_PERSON_AND_ORGANIZATION_ASSIGNMENT ( #177, #126, ( #109 ) ) ;
#60 = DESIGN_CONTEXT ( 'detailed design', #88, 'design' ) ;
#61 = CARTESIAN_POINT ( 'NONE',  ( 5.237222008264700033E-14, -1.500000000000000888, 15.00000000000000000 ) ) ;
#62 = DIRECTION ( 'NONE',  ( 4.275831445896957731E-31, 1.000000000000000000, 1.224646799147353207E-16 ) ) ;
#63 = AXIS2_PLACEMENT_3D ( 'NONE', #42, #64, #23 ) ;
#64 = DIRECTION ( 'NONE',  ( -3.491481338843133355E-15, 1.224646799147353207E-16, -1.000000000000000000 ) ) ;
#65 = DIRECTION ( 'NONE',  ( 3.491481338843133355E-15, -1.276467311168695266E-16, 1.000000000000000000 ) ) ;
#66 = ADVANCED_FACE ( 'NONE', ( #210, #199 ), #13, .T. ) ;
#67 = AXIS2_PLACEMENT_3D ( 'NONE', #103, #65, #174 ) ;
#68 = DATE_AND_TIME ( #223, #26 ) ;
#69 = DATE_AND_TIME ( #73, #221 ) ;
#70 =( GEOMETRIC_REPRESENTATION_CONTEXT ( 3 ) GLOBAL_UNCERTAINTY_ASSIGNED_CONTEXT ( ( #6 ) ) GLOBAL_UNIT_ASSIGNED_CONTEXT ( ( #12, #121, #220 ) ) REPRESENTATION_CONTEXT ( 'NONE', 'WORKASPACE' ) );
#71 = APPROVAL_STATUS ( 'not_yet_approved' ) ;
#72 = ADVANCED_FACE ( 'NONE', ( #4 ), #94, .F. ) ;
#73 = CALENDAR_DATE ( 2021, 8, 12 ) ;
#74 = ADVANCED_FACE ( 'NONE', ( #219 ), #48, .F. ) ;
#75 = ORIENTED_EDGE ( 'NONE', *, *, #155, .F. ) ;
#76 = EDGE_LOOP ( 'NONE', ( #75 ) ) ;
#77 = ORIENTED_EDGE ( 'NONE', *, *, #87, .F. ) ;
#78 = ORIENTED_EDGE ( 'NONE', *, *, #214, .T. ) ;
#79 = EDGE_LOOP ( 'NONE', ( #166 ) ) ;
#80 = CARTESIAN_POINT ( 'NONE',  ( 1.731774744066194397E-13, 1.999999999999995337, 49.60000000000000853 ) ) ;
#81 = DIRECTION ( 'NONE',  ( 0.0000000000000000000, 1.000000000000000000, 0.0000000000000000000 ) ) ;
#82 = FACE_OUTER_BOUND ( 'NONE', #79, .T. ) ;
#83 = APPROVAL ( #86, 'UNSPECIFIED' ) ;
#84 = APPROVAL_ROLE ( '' ) ;
#85 = AXIS2_PLACEMENT_3D ( 'NONE', #130, #39, #149 ) ;
#86 = APPROVAL_STATUS ( 'not_yet_approved' ) ;
#87 = EDGE_CURVE ( 'NONE', #116, #116, #96, .T. ) ;
#88 = APPLICATION_CONTEXT ( 'configuration controlled 3d designs of mechanical parts and assemblies' ) ;
#89 = PERSON_AND_ORGANIZATION_ROLE ( 'design_owner' ) ;
#90 = EDGE_LOOP ( 'NONE', ( #37 ) ) ;
#91 = AXIS2_PLACEMENT_3D ( 'NONE', #150, #45, #62 ) ;
#92 = EDGE_LOOP ( 'NONE', ( #213 ) ) ;
#93 = FACE_OUTER_BOUND ( 'NONE', #111, .T. ) ;
#94 = PLANE ( 'NONE',  #20 ) ;
#95 = MANIFOLD_SOLID_BREP ( 'Corps-Déplacer/Copier1[2]', #43 ) ;
#96 = CIRCLE ( 'NONE', #113, 1.600000000000001421 ) ;
#97 = DIRECTION ( 'NONE',  ( -4.275831445896958607E-31, -1.000000000000000000, -1.224646799147353207E-16 ) ) ;
#98 = ADVANCED_FACE ( 'NONE', ( #10 ), #151, .T. ) ;
#99 = CYLINDRICAL_SURFACE ( 'NONE', #91, 1.999999999999998668 ) ;
#100 = FACE_OUTER_BOUND ( 'NONE', #212, .T. ) ;
#101 = LOCAL_TIME ( 10, 33, 22.00000000000000000, #31 ) ;
#102 = CARTESIAN_POINT ( 'NONE',  ( 1.745740669421566678E-13, -6.123233995736766085E-15, 50.00000000000000000 ) ) ;
#103 = CARTESIAN_POINT ( 'NONE',  ( 5.237222008264700033E-14, -1.914700966753042948E-15, 15.00000000000000000 ) ) ;
#104 = DATE_TIME_ROLE ( 'creation_date' ) ;
#105 = ORGANIZATION ( 'UNSPECIFIED', 'UNSPECIFIED', '' ) ;
#106 = PERSON_AND_ORGANIZATION ( #33, #105 ) ;
#107 = CC_DESIGN_PERSON_AND_ORGANIZATION_ASSIGNMENT ( #159, #89, ( #140 ) ) ;
#108 = DATE_AND_TIME ( #194, #162 ) ;
#109 = SECURITY_CLASSIFICATION ( '', '', #53 ) ;
#110 = COORDINATED_UNIVERSAL_TIME_OFFSET ( 1, 0, .AHEAD. ) ;
#111 = EDGE_LOOP ( 'NONE', ( #3 ) ) ;
#112 = ORIENTED_EDGE ( 'NONE', *, *, #147, .T. ) ;
#113 = AXIS2_PLACEMENT_3D ( 'NONE', #102, #201, #135 ) ;
#114 = EDGE_LOOP ( 'NONE', ( #112 ) ) ;
#115 = EDGE_LOOP ( 'NONE', ( #78 ) ) ;
#116 = VERTEX_POINT ( 'NONE', #156 ) ;
#117 = CC_DESIGN_DATE_AND_TIME_ASSIGNMENT ( #108, #178, ( #109 ) ) ;
#118 = DIRECTION ( 'NONE',  ( -4.275831445896958607E-31, -1.000000000000000000, -1.224646799147353207E-16 ) ) ;
#119 = DIRECTION ( 'NONE',  ( 3.491481338843133355E-15, -1.276467311168695266E-16, 1.000000000000000000 ) ) ;
#120 = VERTEX_POINT ( 'NONE', #27 ) ;
#121 =( NAMED_UNIT ( * ) PLANE_ANGLE_UNIT ( ) SI_UNIT ( $, .RADIAN. ) );
#122 = DIRECTION ( 'NONE',  ( 1.000000000000000000, 0.0000000000000000000, 0.0000000000000000000 ) ) ;
#123 = CALENDAR_DATE ( 2021, 8, 12 ) ;
#124 = CIRCLE ( 'NONE', #67, 1.499999999999998890 ) ;
#125 = PERSON_AND_ORGANIZATION ( #33, #105 ) ;
#126 = PERSON_AND_ORGANIZATION_ROLE ( 'classification_officer' ) ;
#127 = PERSON_AND_ORGANIZATION_ROLE ( 'design_supplier' ) ;
#128 = AXIS2_PLACEMENT_3D ( 'NONE', #30, #50, #122 ) ;
#129 = DIRECTION ( 'NONE',  ( 0.0000000000000000000, -1.000000000000000000, 0.0000000000000000000 ) ) ;
#130 = CARTESIAN_POINT ( 'NONE',  ( -6.413839710158237013E-31, 0.0000000000000000000, -1.836996703606440502E-16 ) ) ;
#131 = APPLICATION_CONTEXT ( 'configuration controlled 3d designs of mechanical parts and assemblies' ) ;
#132 = ORIENTED_EDGE ( 'NONE', *, *, #40, .T. ) ;
#133 = LOCAL_TIME ( 10, 33, 22.00000000000000000, #110 ) ;
#134 = CARTESIAN_POINT ( 'NONE',  ( 5.237222008264700033E-14, -1.914700966753042948E-15, 15.00000000000000000 ) ) ;
#135 = DIRECTION ( 'NONE',  ( 0.0000000000000000000, 1.000000000000000000, 0.0000000000000000000 ) ) ;
#136 = CARTESIAN_POINT ( 'NONE',  ( 1.745740669421566678E-13, -6.123233995736766085E-15, 50.00000000000000000 ) ) ;
#137 = CONICAL_SURFACE ( 'NONE', #153, 1.600000000000001421, 0.7853981633974512766 ) ;
#138 = CARTESIAN_POINT ( 'NONE',  ( 1.731774744066194397E-13, -6.074248123770872657E-15, 49.60000000000000853 ) ) ;
#139 = VERTEX_POINT ( 'NONE', #9 ) ;
#140 = PRODUCT ( '372646', '372646', '', ( #16 ) ) ;
#141 = ADVANCED_FACE ( 'NONE', ( #217, #186 ), #99, .T. ) ;
#142 = CIRCLE ( 'NONE', #38, 1.499999999999998668 ) ;
#143 = COORDINATED_UNIVERSAL_TIME_OFFSET ( 1, 0, .AHEAD. ) ;
#144 = PERSON_AND_ORGANIZATION ( #33, #105 ) ;
#145 = PRODUCT_DEFINITION_SHAPE ( 'NONE', 'NONE',  #49 ) ;
#146 = AXIS2_PLACEMENT_3D ( 'NONE', #55, #41, #129 ) ;
#147 = EDGE_CURVE ( 'NONE', #189, #189, #51, .T. ) ;
#148 = DIRECTION ( 'NONE',  ( 3.491481338843133355E-15, -1.276467311168695266E-16, 1.000000000000000000 ) ) ;
#149 = DIRECTION ( 'NONE',  ( -4.456761796588770537E-31, -1.000000000000000000, -1.276467311168695512E-16 ) ) ;
#150 = CARTESIAN_POINT ( 'NONE',  ( 0.0000000000000000000, 0.0000000000000000000, 0.0000000000000000000 ) ) ;
#151 = PLANE ( 'NONE',  #176 ) ;
#152 = DIRECTION ( 'NONE',  ( -4.456761796588771413E-31, -1.000000000000000000, -1.276467311168695019E-16 ) ) ;
#153 = AXIS2_PLACEMENT_3D ( 'NONE', #136, #202, #47 ) ;
#154 = CARTESIAN_POINT ( 'NONE',  ( -3.206863364263728563E-31, 1.124816252247176662E-32, -9.184821721906410379E-17 ) ) ;
#155 = EDGE_CURVE ( 'NONE', #120, #120, #142, .T. ) ;
#156 = CARTESIAN_POINT ( 'NONE',  ( 1.745740669421566678E-13, 1.599999999999995204, 50.00000000000000000 ) ) ;
#157 = PERSON_AND_ORGANIZATION_ROLE ( 'creator' ) ;
#158 = COORDINATED_UNIVERSAL_TIME_OFFSET ( 1, 0, .AHEAD. ) ;
#159 = PERSON_AND_ORGANIZATION ( #33, #105 ) ;
#160 = APPLICATION_PROTOCOL_DEFINITION ( 'international standard', 'config_control_design', 1994, #131 ) ;
#161 = CALENDAR_DATE ( 2021, 8, 12 ) ;
#162 = LOCAL_TIME ( 10, 33, 22.00000000000000000, #158 ) ;
#163 = DIRECTION ( 'NONE',  ( 0.0000000000000000000, -1.000000000000000000, 0.0000000000000000000 ) ) ;
#164 = DIRECTION ( 'NONE',  ( -3.491481338843133355E-15, 1.276467311168695266E-16, -1.000000000000000000 ) ) ;
#165 = CC_DESIGN_SECURITY_CLASSIFICATION ( #109, ( #185 ) ) ;
#166 = ORIENTED_EDGE ( 'NONE', *, *, #147, .F. ) ;
#167 = CIRCLE ( 'NONE', #11, 1.499999999999998890 ) ;
#168 = DIRECTION ( 'NONE',  ( 3.491481338843133355E-15, -1.224646799147353207E-16, 1.000000000000000000 ) ) ;
#169 = PLANE ( 'NONE',  #63 ) ;
#170 = DIRECTION ( 'NONE',  ( -3.491481338843133355E-15, 1.224646799147353207E-16, -1.000000000000000000 ) ) ;
#171 = ADVANCED_FACE ( 'NONE', ( #82, #200 ), #137, .T. ) ;
#172 = VERTEX_POINT ( 'NONE', #61 ) ;
#173 = CLOSED_SHELL ( 'NONE', ( #141, #171, #209, #66, #72 ) ) ;
#174 = DIRECTION ( 'NONE',  ( 0.0000000000000000000, -1.000000000000000000, 0.0000000000000000000 ) ) ;
#175 = PERSON_AND_ORGANIZATION ( #33, #105 ) ;
#176 = AXIS2_PLACEMENT_3D ( 'NONE', #203, #218, #118 ) ;
#177 = PERSON_AND_ORGANIZATION ( #33, #105 ) ;
#178 = DATE_TIME_ROLE ( 'classification_date' ) ;
#179 = MANIFOLD_SOLID_BREP ( 'Corps-Déplacer/Copier1[1]', #173 ) ;
#180 = CC_DESIGN_PERSON_AND_ORGANIZATION_ASSIGNMENT ( #175, #127, ( #185 ) ) ;
#181 = EDGE_LOOP ( 'NONE', ( #58 ) ) ;
#182 = EDGE_LOOP ( 'NONE', ( #183 ) ) ;
#183 = ORIENTED_EDGE ( 'NONE', *, *, #46, .F. ) ;
#184 = CARTESIAN_POINT ( 'NONE',  ( 5.237222008264700033E-14, 1.499759782661852408E-32, 15.00000000000000000 ) ) ;
#185 = PRODUCT_DEFINITION_FORMATION_WITH_SPECIFIED_SOURCE ( 'ANY', '', #140, .NOT_KNOWN. ) ;
#186 = FACE_OUTER_BOUND ( 'NONE', #181, .T. ) ;
#187 = CC_DESIGN_PERSON_AND_ORGANIZATION_ASSIGNMENT ( #192, #207, ( #185 ) ) ;
#188 = VERTEX_POINT ( 'NONE', #24 ) ;
#189 = VERTEX_POINT ( 'NONE', #80 ) ;
#190 = APPLICATION_PROTOCOL_DEFINITION ( 'international standard', 'config_control_design', 1994, #88 ) ;
#191 = CIRCLE ( 'NONE', #206, 1.999999999999998668 ) ;
#192 = PERSON_AND_ORGANIZATION ( #33, #105 ) ;
#193 = APPROVAL ( #71, 'UNSPECIFIED' ) ;
#194 = CALENDAR_DATE ( 2021, 8, 12 ) ;
#195 = COORDINATED_UNIVERSAL_TIME_OFFSET ( 1, 0, .AHEAD. ) ;
#196 = APPROVAL_PERSON_ORGANIZATION ( #106, #83, #84 ) ;
#197 = CARTESIAN_POINT ( 'NONE',  ( 5.888741295776756228E-14, -2.152893009727162214E-15, 16.86602540378443393 ) ) ;
#198 = APPROVAL_PERSON_ORGANIZATION ( #125, #193, #28 ) ;
#199 = FACE_OUTER_BOUND ( 'NONE', #21, .T. ) ;
#200 = FACE_BOUND ( 'NONE', #90, .T. ) ;
#201 = DIRECTION ( 'NONE',  ( -3.491481338843133355E-15, 1.224646799147353207E-16, -1.000000000000000000 ) ) ;
#202 = DIRECTION ( 'NONE',  ( -3.491481338843133355E-15, 1.224646799147353207E-16, -1.000000000000000000 ) ) ;
#203 = CARTESIAN_POINT ( 'NONE',  ( 5.237222008264700033E-14, 1.499759782661852408E-32, 15.00000000000000000 ) ) ;
#204 = APPROVAL_DATE_TIME ( #32, #193 ) ;
#205 = APPROVAL_STATUS ( 'not_yet_approved' ) ;
#206 = AXIS2_PLACEMENT_3D ( 'NONE', #197, #164, #163 ) ;
#207 = PERSON_AND_ORGANIZATION_ROLE ( 'creator' ) ;
#208 = APPROVAL_DATE_TIME ( #69, #18 ) ;
#209 = ADVANCED_FACE ( 'NONE', ( #100 ), #169, .F. ) ;
#210 = FACE_BOUND ( 'NONE', #215, .T. ) ;
#211 = CC_DESIGN_APPROVAL ( #83, ( #185 ) ) ;
#212 = EDGE_LOOP ( 'NONE', ( #77 ) ) ;
#213 = ORIENTED_EDGE ( 'NONE', *, *, #155, .T. ) ;
#214 = EDGE_CURVE ( 'NONE', #139, #139, #124, .T. ) ;
#215 = EDGE_LOOP ( 'NONE', ( #35 ) ) ;
#216 = CC_DESIGN_PERSON_AND_ORGANIZATION_ASSIGNMENT ( #144, #157, ( #49 ) ) ;
#217 = FACE_OUTER_BOUND ( 'NONE', #114, .T. ) ;
#218 = DIRECTION ( 'NONE',  ( 3.491481338843133355E-15, -1.224646799147353207E-16, 1.000000000000000000 ) ) ;
#219 = FACE_OUTER_BOUND ( 'NONE', #76, .T. ) ;
#220 =( NAMED_UNIT ( * ) SI_UNIT ( $, .STERADIAN. ) SOLID_ANGLE_UNIT ( ) );
#221 = LOCAL_TIME ( 10, 33, 22.00000000000000000, #195 ) ;
#222 = SHAPE_DEFINITION_REPRESENTATION ( #145, #8 ) ;
#223 = CALENDAR_DATE ( 2021, 8, 12 ) ;
ENDSEC;
END-ISO-10303-21;
