ISO-10303-21;
HEADER;
FILE_DESCRIPTION (( 'STEP AP203' ),
    '1' );
FILE_NAME ('372645.step',
    '2021-12-08T09:33:21',
    ( '' ),
    ( '' ),
    'SwSTEP 2.0',
    'SolidWorks 2019',
    '' );
FILE_SCHEMA (( 'CONFIG_CONTROL_DESIGN' ));
ENDSEC;

DATA;
#1 = APPROVAL_PERSON_ORGANIZATION ( #24, #183, #185 ) ;
#2 = DIRECTION ( 'NONE',  ( -3.491481338843133355E-15, 1.224646799147353207E-16, -1.000000000000000000 ) ) ;
#3 = DIRECTION ( 'NONE',  ( 0.0000000000000000000, -1.000000000000000000, 0.0000000000000000000 ) ) ;
#4 = EDGE_LOOP ( 'NONE', ( #33 ) ) ;
#5 = FACE_OUTER_BOUND ( 'NONE', #35, .T. ) ;
#6 = FACE_OUTER_BOUND ( 'NONE', #125, .T. ) ;
#7 = APPROVAL_ROLE ( '' ) ;
#8 = AXIS2_PLACEMENT_3D ( 'NONE', #20, #119, #49 ) ;
#9 = PERSON_AND_ORGANIZATION ( #46, #199 ) ;
#10 = APPROVAL_PERSON_ORGANIZATION ( #9, #88, #56 ) ;
#11 = APPLICATION_PROTOCOL_DEFINITION ( 'international standard', 'config_control_design', 1994, #159 ) ;
#12 = CARTESIAN_POINT ( 'NONE',  ( 3.491481338843133355E-14, 1.499759782661852134E-32, 10.00000000000000000 ) ) ;
#13 = DIRECTION ( 'NONE',  ( 3.491481338843133355E-15, -1.276467311168695266E-16, 1.000000000000000000 ) ) ;
#14 = FACE_OUTER_BOUND ( 'NONE', #207, .T. ) ;
#15 = PRODUCT_DEFINITION ( 'UNKNOWN', '', #117, #135 ) ;
#16 = DIRECTION ( 'NONE',  ( 3.491481338843133355E-15, -1.276467311168695266E-16, 1.000000000000000000 ) ) ;
#17 = ORIENTED_EDGE ( 'NONE', *, *, #132, .F. ) ;
#18 = CARTESIAN_POINT ( 'NONE',  ( 1.396592535537253342E-13, 1.599999999999992761, 40.00000000000000000 ) ) ;
#19 = CARTESIAN_POINT ( 'NONE',  ( 3.491481338843133355E-14, -1.276467311168695364E-15, 10.00000000000000000 ) ) ;
#20 = CARTESIAN_POINT ( 'NONE',  ( -3.206928183860061366E-31, 1.124838987901034487E-32, -9.185007372608912317E-17 ) ) ;
#21 = EDGE_LOOP ( 'NONE', ( #38 ) ) ;
#22 = PERSON_AND_ORGANIZATION ( #46, #199 ) ;
#23 = PERSON_AND_ORGANIZATION_ROLE ( 'design_owner' ) ;
#24 = PERSON_AND_ORGANIZATION ( #46, #199 ) ;
#25 = DIRECTION ( 'NONE',  ( 0.0000000000000000000, 1.000000000000000000, 0.0000000000000000000 ) ) ;
#26 = COORDINATED_UNIVERSAL_TIME_OFFSET ( 1, 0, .AHEAD. ) ;
#27 = ADVANCED_FACE ( 'NONE', ( #6, #70 ), #28, .T. ) ;
#28 = CONICAL_SURFACE ( 'NONE', #172, 1.599999999999997646, 0.7853981633974510546 ) ;
#29 = SHAPE_DEFINITION_REPRESENTATION ( #118, #106 ) ;
#30 = PRODUCT ( '372645', '372645', '', ( #163 ) ) ;
#31 = EDGE_CURVE ( 'NONE', #123, #123, #146, .T. ) ;
#32 = DIRECTION ( 'NONE',  ( 0.0000000000000000000, -1.000000000000000000, 0.0000000000000000000 ) ) ;
#33 = ORIENTED_EDGE ( 'NONE', *, *, #67, .F. ) ;
#34 = CARTESIAN_POINT ( 'NONE',  ( 3.491481338843133355E-14, -1.500000000000000444, 10.00000000000000000 ) ) ;
#35 = EDGE_LOOP ( 'NONE', ( #103 ) ) ;
#36 = AXIS2_PLACEMENT_3D ( 'NONE', #12, #152, #62 ) ;
#37 = CARTESIAN_POINT ( 'NONE',  ( 0.0000000000000000000, 0.0000000000000000000, 0.0000000000000000000 ) ) ;
#38 = ORIENTED_EDGE ( 'NONE', *, *, #132, .T. ) ;
#39 = COORDINATED_UNIVERSAL_TIME_OFFSET ( 1, 0, .AHEAD. ) ;
#40 = APPROVAL ( #160, 'UNSPECIFIED' ) ;
#41 = CALENDAR_DATE ( 2021, 8, 12 ) ;
#42 = CALENDAR_DATE ( 2021, 8, 12 ) ;
#43 = CC_DESIGN_SECURITY_CLASSIFICATION ( #78, ( #117 ) ) ;
#44 = APPROVAL_DATE_TIME ( #196, #40 ) ;
#45 = CC_DESIGN_PERSON_AND_ORGANIZATION_ASSIGNMENT ( #98, #217, ( #78 ) ) ;
#46 = PERSON ( 'UNSPECIFIED', 'UNSPECIFIED', 'UNSPECIFIED', ('UNSPECIFIED'), ('UNSPECIFIED'), ('UNSPECIFIED') ) ;
#47 = VERTEX_POINT ( 'NONE', #52 ) ;
#48 = EDGE_LOOP ( 'NONE', ( #17 ) ) ;
#49 = DIRECTION ( 'NONE',  ( -4.275831445896958607E-31, -1.000000000000000000, -1.224646799147353207E-16 ) ) ;
#50 = DIRECTION ( 'NONE',  ( 4.275831445896958607E-31, 1.000000000000000000, 1.224646799147353207E-16 ) ) ;
#51 = EDGE_LOOP ( 'NONE', ( #204 ) ) ;
#52 = CARTESIAN_POINT ( 'NONE',  ( -3.368048475777682952E-30, -1.499999999999998668, -9.646474229456003855E-16 ) ) ;
#53 = ORIENTED_EDGE ( 'NONE', *, *, #31, .F. ) ;
#54 = MANIFOLD_SOLID_BREP ( 'Corps-Déplacer/Copier1[1]', #161 ) ;
#55 = COORDINATED_UNIVERSAL_TIME_OFFSET ( 1, 0, .AHEAD. ) ;
#56 = APPROVAL_ROLE ( '' ) ;
#57 = DATE_TIME_ROLE ( 'creation_date' ) ;
#58 = ADVANCED_FACE ( 'NONE', ( #170 ), #100, .F. ) ;
#59 = COORDINATED_UNIVERSAL_TIME_OFFSET ( 1, 0, .AHEAD. ) ;
#60 = DIRECTION ( 'NONE',  ( 0.0000000000000000000, 1.000000000000000000, 0.0000000000000000000 ) ) ;
#61 = CIRCLE ( 'NONE', #101, 1.499999999999999112 ) ;
#62 = DIRECTION ( 'NONE',  ( -4.275831445896958607E-31, -1.000000000000000000, -1.224646799147353207E-16 ) ) ;
#63 = EDGE_LOOP ( 'NONE', ( #211 ) ) ;
#64 = FACE_OUTER_BOUND ( 'NONE', #21, .T. ) ;
#65 = AXIS2_PLACEMENT_3D ( 'NONE', #94, #116, #60 ) ;
#66 = CARTESIAN_POINT ( 'NONE',  ( 1.396592535537253342E-13, 1.199807826129476918E-32, 40.00000000000000000 ) ) ;
#67 = EDGE_CURVE ( 'NONE', #47, #47, #107, .T. ) ;
#68 = DIRECTION ( 'NONE',  ( 0.0000000000000000000, 1.000000000000000000, 0.0000000000000000000 ) ) ;
#69 = CARTESIAN_POINT ( 'NONE',  ( 3.491481338843133355E-14, -1.500000000000000444, 10.00000000000000000 ) ) ;
#70 = FACE_BOUND ( 'NONE', #191, .T. ) ;
#71 = CC_DESIGN_PERSON_AND_ORGANIZATION_ASSIGNMENT ( #77, #114, ( #117 ) ) ;
#72 = AXIS2_PLACEMENT_3D ( 'NONE', #37, #83, #102 ) ;
#73 =( NAMED_UNIT ( * ) PLANE_ANGLE_UNIT ( ) SI_UNIT ( $, .RADIAN. ) );
#74 =( NAMED_UNIT ( * ) SI_UNIT ( $, .STERADIAN. ) SOLID_ANGLE_UNIT ( ) );
#75 = COORDINATED_UNIVERSAL_TIME_OFFSET ( 1, 0, .AHEAD. ) ;
#76 = AXIS2_PLACEMENT_3D ( 'NONE', #81, #13, #138 ) ;
#77 = PERSON_AND_ORGANIZATION ( #46, #199 ) ;
#78 = SECURITY_CLASSIFICATION ( '', '', #149 ) ;
#79 = DATE_AND_TIME ( #111, #202 ) ;
#80 = CC_DESIGN_PERSON_AND_ORGANIZATION_ASSIGNMENT ( #167, #131, ( #15 ) ) ;
#81 = CARTESIAN_POINT ( 'NONE',  ( -2.699534206289368204E-30, 7.524489584330192056E-32, -7.731773262702962682E-16 ) ) ;
#82 = AXIS2_PLACEMENT_3D ( 'NONE', #145, #120, #68 ) ;
#83 = DIRECTION ( 'NONE',  ( -3.491481338843133355E-15, 1.224646799147353207E-16, -1.000000000000000000 ) ) ;
#84 = DIRECTION ( 'NONE',  ( 3.491481338843133355E-15, -1.224646799147353207E-16, 1.000000000000000000 ) ) ;
#85 = CARTESIAN_POINT ( 'NONE',  ( 1.382626610181880809E-13, 1.999999999999992673, 39.60000000000000142 ) ) ;
#86 = CARTESIAN_POINT ( 'NONE',  ( 4.143000626355186395E-14, -1.514659354142813250E-15, 11.86602540378442150 ) ) ;
#87 = VERTEX_POINT ( 'NONE', #69 ) ;
#88 = APPROVAL ( #215, 'UNSPECIFIED' ) ;
#89 = ORIENTED_EDGE ( 'NONE', *, *, #154, .F. ) ;
#90 = APPROVAL_DATE_TIME ( #92, #183 ) ;
#91 = APPROVAL_PERSON_ORGANIZATION ( #134, #40, #7 ) ;
#92 = DATE_AND_TIME ( #147, #179 ) ;
#93 = CARTESIAN_POINT ( 'NONE',  ( 0.0000000000000000000, 0.0000000000000000000, 0.0000000000000000000 ) ) ;
#94 = CARTESIAN_POINT ( 'NONE',  ( 1.396592535537253342E-13, -4.898587196589413026E-15, 40.00000000000000000 ) ) ;
#95 = ADVANCED_FACE ( 'NONE', ( #187 ), #140, .F. ) ;
#96 = APPROVAL_DATE_TIME ( #198, #88 ) ;
#97 = CC_DESIGN_APPROVAL ( #183, ( #15 ) ) ;
#98 = PERSON_AND_ORGANIZATION ( #46, #199 ) ;
#99 = CC_DESIGN_APPROVAL ( #40, ( #78 ) ) ;
#100 = PLANE ( 'NONE',  #36 ) ;
#101 = AXIS2_PLACEMENT_3D ( 'NONE', #19, #173, #180 ) ;
#102 = DIRECTION ( 'NONE',  ( 4.275831445896958607E-31, 1.000000000000000000, 1.224646799147352961E-16 ) ) ;
#103 = ORIENTED_EDGE ( 'NONE', *, *, #121, .F. ) ;
#104 = CC_DESIGN_DATE_AND_TIME_ASSIGNMENT ( #110, #57, ( #15 ) ) ;
#105 = CYLINDRICAL_SURFACE ( 'NONE', #219, 1.499999999999998890 ) ;
#106 = ADVANCED_BREP_SHAPE_REPRESENTATION ( '372645', ( #54, #129, #169 ), #142 ) ;
#107 = CIRCLE ( 'NONE', #76, 1.499999999999998668 ) ;
#108 = PLANE ( 'NONE',  #216 ) ;
#109 = ORIENTED_EDGE ( 'NONE', *, *, #67, .T. ) ;
#110 = DATE_AND_TIME ( #41, #133 ) ;
#111 = CALENDAR_DATE ( 2021, 8, 12 ) ;
#112 = ADVANCED_FACE ( 'NONE', ( #141, #177 ), #189, .T. ) ;
#113 = PERSON_AND_ORGANIZATION_ROLE ( 'creator' ) ;
#114 = PERSON_AND_ORGANIZATION_ROLE ( 'design_supplier' ) ;
#115 = CC_DESIGN_PERSON_AND_ORGANIZATION_ASSIGNMENT ( #184, #23, ( #30 ) ) ;
#116 = DIRECTION ( 'NONE',  ( -3.491481338843133355E-15, 1.224646799147353207E-16, -1.000000000000000000 ) ) ;
#117 = PRODUCT_DEFINITION_FORMATION_WITH_SPECIFIED_SOURCE ( 'ANY', '', #30, .NOT_KNOWN. ) ;
#118 = PRODUCT_DEFINITION_SHAPE ( 'NONE', 'NONE',  #15 ) ;
#119 = DIRECTION ( 'NONE',  ( 3.491481338843133355E-15, -1.224646799147353207E-16, 1.000000000000000000 ) ) ;
#120 = DIRECTION ( 'NONE',  ( -3.491481338843133355E-15, 1.224646799147353207E-16, -1.000000000000000000 ) ) ;
#121 = EDGE_CURVE ( 'NONE', #87, #87, #61, .T. ) ;
#122 = ORIENTED_EDGE ( 'NONE', *, *, #171, .F. ) ;
#123 = VERTEX_POINT ( 'NONE', #18 ) ;
#124 = CARTESIAN_POINT ( 'NONE',  ( 3.491481338843133355E-14, 1.499759782661852134E-32, 10.00000000000000000 ) ) ;
#125 = EDGE_LOOP ( 'NONE', ( #122 ) ) ;
#126 = ADVANCED_FACE ( 'NONE', ( #143 ), #158, .F. ) ;
#127 = CARTESIAN_POINT ( 'NONE',  ( 4.143000626355186395E-14, -1.999999999999997335, 11.86602540378442150 ) ) ;
#128 = CIRCLE ( 'NONE', #136, 1.999999999999996225 ) ;
#129 = MANIFOLD_SOLID_BREP ( 'Corps-Déplacer/Copier1[2]', #205 ) ;
#130 = CALENDAR_DATE ( 2021, 8, 12 ) ;
#131 = PERSON_AND_ORGANIZATION_ROLE ( 'creator' ) ;
#132 = EDGE_CURVE ( 'NONE', #192, #192, #128, .T. ) ;
#133 = LOCAL_TIME ( 10, 33, 21.00000000000000000, #75 ) ;
#134 = PERSON_AND_ORGANIZATION ( #46, #199 ) ;
#135 = DESIGN_CONTEXT ( 'detailed design', #159, 'design' ) ;
#136 = AXIS2_PLACEMENT_3D ( 'NONE', #86, #223, #3 ) ;
#137 = LOCAL_TIME ( 10, 33, 21.00000000000000000, #55 ) ;
#138 = DIRECTION ( 'NONE',  ( -4.456761796588771413E-31, -1.000000000000000000, -1.276467311168695019E-16 ) ) ;
#139 = CC_DESIGN_PERSON_AND_ORGANIZATION_ASSIGNMENT ( #22, #113, ( #117 ) ) ;
#140 = PLANE ( 'NONE',  #148 ) ;
#141 = FACE_OUTER_BOUND ( 'NONE', #51, .T. ) ;
#142 =( GEOMETRIC_REPRESENTATION_CONTEXT ( 3 ) GLOBAL_UNCERTAINTY_ASSIGNED_CONTEXT ( ( #201 ) ) GLOBAL_UNIT_ASSIGNED_CONTEXT ( ( #165, #73, #74 ) ) REPRESENTATION_CONTEXT ( 'NONE', 'WORKASPACE' ) );
#143 = FACE_OUTER_BOUND ( 'NONE', #4, .T. ) ;
#144 = FACE_BOUND ( 'NONE', #63, .T. ) ;
#145 = CARTESIAN_POINT ( 'NONE',  ( 1.382626610181880809E-13, -4.849601324623518809E-15, 39.60000000000000142 ) ) ;
#146 = CIRCLE ( 'NONE', #65, 1.599999999999997646 ) ;
#147 = CALENDAR_DATE ( 2021, 8, 12 ) ;
#148 = AXIS2_PLACEMENT_3D ( 'NONE', #66, #2, #50 ) ;
#149 = SECURITY_CLASSIFICATION_LEVEL ( 'unclassified' ) ;
#150 = CONICAL_SURFACE ( 'NONE', #213, 6.500000000000000000, 0.2617993877991501295 ) ;
#151 = ADVANCED_FACE ( 'NONE', ( #14, #5 ), #105, .T. ) ;
#152 = DIRECTION ( 'NONE',  ( 3.491481338843133355E-15, -1.224646799147353207E-16, 1.000000000000000000 ) ) ;
#153 = CIRCLE ( 'NONE', #166, 1.499999999999999112 ) ;
#154 = EDGE_CURVE ( 'NONE', #190, #190, #153, .T. ) ;
#155 = DIRECTION ( 'NONE',  ( 3.491481338843133355E-15, -1.276467311168695266E-16, 1.000000000000000000 ) ) ;
#156 = DIRECTION ( 'NONE',  ( -4.275831445896958607E-31, -1.000000000000000000, -1.224646799147353207E-16 ) ) ;
#157 = LOCAL_TIME ( 10, 33, 21.00000000000000000, #39 ) ;
#158 = PLANE ( 'NONE',  #8 ) ;
#159 = APPLICATION_CONTEXT ( 'configuration controlled 3d designs of mechanical parts and assemblies' ) ;
#160 = APPROVAL_STATUS ( 'not_yet_approved' ) ;
#161 = CLOSED_SHELL ( 'NONE', ( #112, #27, #95, #212, #58 ) ) ;
#162 = DIRECTION ( 'NONE',  ( 0.0000000000000000000, 0.0000000000000000000, 1.000000000000000000 ) ) ;
#163 = MECHANICAL_CONTEXT ( 'NONE', #221, 'mechanical' ) ;
#164 = DIRECTION ( 'NONE',  ( -3.491481338843133355E-15, 1.224646799147353207E-16, -1.000000000000000000 ) ) ;
#165 =( LENGTH_UNIT ( ) NAMED_UNIT ( * ) SI_UNIT ( .MILLI., .METRE. ) );
#166 = AXIS2_PLACEMENT_3D ( 'NONE', #174, #16, #32 ) ;
#167 = PERSON_AND_ORGANIZATION ( #46, #199 ) ;
#168 = ADVANCED_FACE ( 'NONE', ( #222 ), #108, .T. ) ;
#169 = AXIS2_PLACEMENT_3D ( 'NONE', #93, #162, #182 ) ;
#170 = FACE_OUTER_BOUND ( 'NONE', #175, .T. ) ;
#171 = EDGE_CURVE ( 'NONE', #176, #176, #186, .T. ) ;
#172 = AXIS2_PLACEMENT_3D ( 'NONE', #197, #164, #25 ) ;
#173 = DIRECTION ( 'NONE',  ( 3.491481338843133355E-15, -1.276467311168695266E-16, 1.000000000000000000 ) ) ;
#174 = CARTESIAN_POINT ( 'NONE',  ( 3.491481338843133355E-14, -1.276467311168695364E-15, 10.00000000000000000 ) ) ;
#175 = EDGE_LOOP ( 'NONE', ( #89 ) ) ;
#176 = VERTEX_POINT ( 'NONE', #85 ) ;
#177 = FACE_OUTER_BOUND ( 'NONE', #48, .T. ) ;
#178 = ORIENTED_EDGE ( 'NONE', *, *, #121, .T. ) ;
#179 = LOCAL_TIME ( 10, 33, 21.00000000000000000, #26 ) ;
#180 = DIRECTION ( 'NONE',  ( 0.0000000000000000000, -1.000000000000000000, 0.0000000000000000000 ) ) ;
#181 = EDGE_LOOP ( 'NONE', ( #178 ) ) ;
#182 = DIRECTION ( 'NONE',  ( 1.000000000000000000, 0.0000000000000000000, 0.0000000000000000000 ) ) ;
#183 = APPROVAL ( #200, 'UNSPECIFIED' ) ;
#184 = PERSON_AND_ORGANIZATION ( #46, #199 ) ;
#185 = APPROVAL_ROLE ( '' ) ;
#186 = CIRCLE ( 'NONE', #82, 1.999999999999997335 ) ;
#187 = FACE_OUTER_BOUND ( 'NONE', #193, .T. ) ;
#188 = CC_DESIGN_DATE_AND_TIME_ASSIGNMENT ( #79, #214, ( #78 ) ) ;
#189 = CYLINDRICAL_SURFACE ( 'NONE', #72, 1.999999999999996225 ) ;
#190 = VERTEX_POINT ( 'NONE', #34 ) ;
#191 = EDGE_LOOP ( 'NONE', ( #209 ) ) ;
#192 = VERTEX_POINT ( 'NONE', #127 ) ;
#193 = EDGE_LOOP ( 'NONE', ( #53 ) ) ;
#194 = DIRECTION ( 'NONE',  ( 0.0000000000000000000, -1.000000000000000000, 0.0000000000000000000 ) ) ;
#195 = APPLICATION_PROTOCOL_DEFINITION ( 'international standard', 'config_control_design', 1994, #221 ) ;
#196 = DATE_AND_TIME ( #130, #137 ) ;
#197 = CARTESIAN_POINT ( 'NONE',  ( 1.396592535537253342E-13, -4.898587196589413026E-15, 40.00000000000000000 ) ) ;
#198 = DATE_AND_TIME ( #42, #157 ) ;
#199 = ORGANIZATION ( 'UNSPECIFIED', 'UNSPECIFIED', '' ) ;
#200 = APPROVAL_STATUS ( 'not_yet_approved' ) ;
#201 = UNCERTAINTY_MEASURE_WITH_UNIT (LENGTH_MEASURE( 1.000000000000000082E-05 ), #165, 'distance_accuracy_value', 'NONE');
#202 = LOCAL_TIME ( 10, 33, 21.00000000000000000, #59 ) ;
#203 = CARTESIAN_POINT ( 'NONE',  ( 1.000667421396370667E-13, -3.658387740909890592E-15, 28.66025403784433934 ) ) ;
#204 = ORIENTED_EDGE ( 'NONE', *, *, #171, .T. ) ;
#205 = CLOSED_SHELL ( 'NONE', ( #168, #151, #126 ) ) ;
#206 = DIRECTION ( 'NONE',  ( -4.456761796588770537E-31, -1.000000000000000000, -1.276467311168695266E-16 ) ) ;
#207 = EDGE_LOOP ( 'NONE', ( #109 ) ) ;
#208 = CARTESIAN_POINT ( 'NONE',  ( -6.413839710158237013E-31, 0.0000000000000000000, -1.836996703606440502E-16 ) ) ;
#209 = ORIENTED_EDGE ( 'NONE', *, *, #31, .T. ) ;
#210 = DIRECTION ( 'NONE',  ( 3.491481338843133355E-15, -1.276467311168695266E-16, 1.000000000000000000 ) ) ;
#211 = ORIENTED_EDGE ( 'NONE', *, *, #154, .T. ) ;
#212 = ADVANCED_FACE ( 'NONE', ( #144, #64 ), #150, .T. ) ;
#213 = AXIS2_PLACEMENT_3D ( 'NONE', #203, #210, #194 ) ;
#214 = DATE_TIME_ROLE ( 'classification_date' ) ;
#215 = APPROVAL_STATUS ( 'not_yet_approved' ) ;
#216 = AXIS2_PLACEMENT_3D ( 'NONE', #124, #84, #156 ) ;
#217 = PERSON_AND_ORGANIZATION_ROLE ( 'classification_officer' ) ;
#218 = PRODUCT_RELATED_PRODUCT_CATEGORY ( 'detail', '', ( #30 ) ) ;
#219 = AXIS2_PLACEMENT_3D ( 'NONE', #208, #155, #206 ) ;
#220 = CC_DESIGN_APPROVAL ( #88, ( #117 ) ) ;
#221 = APPLICATION_CONTEXT ( 'configuration controlled 3d designs of mechanical parts and assemblies' ) ;
#222 = FACE_OUTER_BOUND ( 'NONE', #181, .T. ) ;
#223 = DIRECTION ( 'NONE',  ( -3.491481338843133355E-15, 1.276467311168695266E-16, -1.000000000000000000 ) ) ;
ENDSEC;
END-ISO-10303-21;
