ISO-10303-21;
HEADER;
FILE_DESCRIPTION (( 'STEP AP203' ),
    '1' );
FILE_NAME ('372644.step',
    '2021-12-08T09:33:20',
    ( '' ),
    ( '' ),
    'SwSTEP 2.0',
    'SolidWorks 2019',
    '' );
FILE_SCHEMA (( 'CONFIG_CONTROL_DESIGN' ));
ENDSEC;

DATA;
#1 = SHAPE_DEFINITION_REPRESENTATION ( #17, #23 ) ;
#2 = APPROVAL_ROLE ( '' ) ;
#3 = FACE_BOUND ( 'NONE', #47, .T. ) ;
#4 = CC_DESIGN_PERSON_AND_ORGANIZATION_ASSIGNMENT ( #122, #158, ( #170 ) ) ;
#5 = APPROVAL_STATUS ( 'not_yet_approved' ) ;
#6 = DIRECTION ( 'NONE',  ( 3.491481338843133355E-15, -1.276467311168695266E-16, 1.000000000000000000 ) ) ;
#7 = APPLICATION_PROTOCOL_DEFINITION ( 'international standard', 'config_control_design', 1994, #115 ) ;
#8 = EDGE_LOOP ( 'NONE', ( #78 ) ) ;
#9 = UNCERTAINTY_MEASURE_WITH_UNIT (LENGTH_MEASURE( 1.000000000000000082E-05 ), #136, 'distance_accuracy_value', 'NONE');
#10 = PERSON ( 'UNSPECIFIED', 'UNSPECIFIED', 'UNSPECIFIED', ('UNSPECIFIED'), ('UNSPECIFIED'), ('UNSPECIFIED') ) ;
#11 = VERTEX_POINT ( 'NONE', #148 ) ;
#12 = CARTESIAN_POINT ( 'NONE',  ( 2.793185071074506684E-14, -1.499999999999999112, 8.000000000000000000 ) ) ;
#13 = AXIS2_PLACEMENT_3D ( 'NONE', #166, #97, #96 ) ;
#14 = PERSON_AND_ORGANIZATION ( #10, #58 ) ;
#15 = DIRECTION ( 'NONE',  ( -3.491481338843133355E-15, 1.224646799147353207E-16, -1.000000000000000000 ) ) ;
#16 = PLANE ( 'NONE',  #200 ) ;
#17 = PRODUCT_DEFINITION_SHAPE ( 'NONE', 'NONE',  #54 ) ;
#18 = COORDINATED_UNIVERSAL_TIME_OFFSET ( 1, 0, .AHEAD. ) ;
#19 = FACE_OUTER_BOUND ( 'NONE', #51, .T. ) ;
#20 = LOCAL_TIME ( 10, 33, 20.00000000000000000, #18 ) ;
#21 = EDGE_LOOP ( 'NONE', ( #180 ) ) ;
#22 = CALENDAR_DATE ( 2021, 8, 12 ) ;
#23 = ADVANCED_BREP_SHAPE_REPRESENTATION ( '372644', ( #104, #181, #174 ), #34 ) ;
#24 = DIRECTION ( 'NONE',  ( 0.0000000000000000000, 0.0000000000000000000, 1.000000000000000000 ) ) ;
#25 = AXIS2_PLACEMENT_3D ( 'NONE', #98, #120, #190 ) ;
#26 = CLOSED_SHELL ( 'NONE', ( #81, #155, #35, #150, #168 ) ) ;
#27 = APPROVAL ( #105, 'UNSPECIFIED' ) ;
#28 = APPROVAL_DATE_TIME ( #72, #27 ) ;
#29 = EDGE_CURVE ( 'NONE', #63, #63, #68, .T. ) ;
#30 = DIRECTION ( 'NONE',  ( -4.275831445896958607E-31, -1.000000000000000000, -1.224646799147353207E-16 ) ) ;
#31 = FACE_OUTER_BOUND ( 'NONE', #21, .T. ) ;
#32 = CARTESIAN_POINT ( 'NONE',  ( 2.094888803305880013E-13, 1.599999999999994094, 60.00000000000000000 ) ) ;
#33 = DIRECTION ( 'NONE',  ( 0.0000000000000000000, -1.000000000000000000, 0.0000000000000000000 ) ) ;
#34 =( GEOMETRIC_REPRESENTATION_CONTEXT ( 3 ) GLOBAL_UNCERTAINTY_ASSIGNED_CONTEXT ( ( #9 ) ) GLOBAL_UNIT_ASSIGNED_CONTEXT ( ( #136, #193, #171 ) ) REPRESENTATION_CONTEXT ( 'NONE', 'WORKASPACE' ) );
#35 = ADVANCED_FACE ( 'NONE', ( #169 ), #16, .F. ) ;
#36 = ORIENTED_EDGE ( 'NONE', *, *, #59, .T. ) ;
#37 = PLANE ( 'NONE',  #57 ) ;
#38 = CALENDAR_DATE ( 2021, 8, 12 ) ;
#39 = PERSON_AND_ORGANIZATION_ROLE ( 'creator' ) ;
#40 = APPROVAL_PERSON_ORGANIZATION ( #175, #27, #173 ) ;
#41 = CARTESIAN_POINT ( 'NONE',  ( 2.094888803305880013E-13, -7.347880794884118356E-15, 60.00000000000000000 ) ) ;
#42 = DIRECTION ( 'NONE',  ( 1.000000000000000000, 0.0000000000000000000, 0.0000000000000000000 ) ) ;
#43 = CARTESIAN_POINT ( 'NONE',  ( 2.793185071074506684E-14, 1.499759782661852681E-32, 8.000000000000000000 ) ) ;
#44 = AXIS2_PLACEMENT_3D ( 'NONE', #66, #138, #33 ) ;
#45 = AXIS2_PLACEMENT_3D ( 'NONE', #124, #198, #70 ) ;
#46 = LOCAL_TIME ( 10, 33, 20.00000000000000000, #127 ) ;
#47 = EDGE_LOOP ( 'NONE', ( #135 ) ) ;
#48 = ADVANCED_FACE ( 'NONE', ( #53, #31 ), #55, .T. ) ;
#49 = APPROVAL_PERSON_ORGANIZATION ( #14, #145, #65 ) ;
#50 = DIRECTION ( 'NONE',  ( 3.491481338843133355E-15, -1.276467311168695266E-16, 1.000000000000000000 ) ) ;
#51 = EDGE_LOOP ( 'NONE', ( #93 ) ) ;
#52 = CIRCLE ( 'NONE', #172, 1.999999999999998224 ) ;
#53 = FACE_OUTER_BOUND ( 'NONE', #133, .T. ) ;
#54 = PRODUCT_DEFINITION ( 'UNKNOWN', '', #74, #130 ) ;
#55 = CYLINDRICAL_SURFACE ( 'NONE', #94, 1.499999999999998224 ) ;
#56 = CALENDAR_DATE ( 2021, 8, 12 ) ;
#57 = AXIS2_PLACEMENT_3D ( 'NONE', #123, #107, #88 ) ;
#58 = ORGANIZATION ( 'UNSPECIFIED', 'UNSPECIFIED', '' ) ;
#59 = EDGE_CURVE ( 'NONE', #163, #163, #52, .T. ) ;
#60 = ORIENTED_EDGE ( 'NONE', *, *, #203, .T. ) ;
#61 = EDGE_LOOP ( 'NONE', ( #60 ) ) ;
#62 = PERSON_AND_ORGANIZATION_ROLE ( 'classification_officer' ) ;
#63 = VERTEX_POINT ( 'NONE', #134 ) ;
#64 = DIRECTION ( 'NONE',  ( 3.491481338843133355E-15, -1.276467311168695266E-16, 1.000000000000000000 ) ) ;
#65 = APPROVAL_ROLE ( '' ) ;
#66 = CARTESIAN_POINT ( 'NONE',  ( 2.793185071074506684E-14, -1.021173848934956212E-15, 8.000000000000000000 ) ) ;
#67 = PLANE ( 'NONE',  #205 ) ;
#68 = CIRCLE ( 'NONE', #182, 1.499999999999998668 ) ;
#69 = CC_DESIGN_PERSON_AND_ORGANIZATION_ASSIGNMENT ( #92, #161, ( #74 ) ) ;
#70 = DIRECTION ( 'NONE',  ( 0.0000000000000000000, -1.000000000000000000, 0.0000000000000000000 ) ) ;
#71 = DIRECTION ( 'NONE',  ( 0.0000000000000000000, -1.000000000000000000, 0.0000000000000000000 ) ) ;
#72 = DATE_AND_TIME ( #157, #46 ) ;
#73 = ORIENTED_EDGE ( 'NONE', *, *, #29, .T. ) ;
#74 = PRODUCT_DEFINITION_FORMATION_WITH_SPECIFIED_SOURCE ( 'ANY', '', #170, .NOT_KNOWN. ) ;
#75 = CIRCLE ( 'NONE', #44, 1.499999999999998002 ) ;
#76 = VERTEX_POINT ( 'NONE', #185 ) ;
#77 = AXIS2_PLACEMENT_3D ( 'NONE', #43, #176, #156 ) ;
#78 = ORIENTED_EDGE ( 'NONE', *, *, #29, .F. ) ;
#79 = CC_DESIGN_APPROVAL ( #27, ( #74 ) ) ;
#80 = APPROVAL_STATUS ( 'not_yet_approved' ) ;
#81 = ADVANCED_FACE ( 'NONE', ( #19, #82 ), #154, .T. ) ;
#82 = FACE_OUTER_BOUND ( 'NONE', #164, .T. ) ;
#83 = ORIENTED_EDGE ( 'NONE', *, *, #203, .F. ) ;
#84 = COORDINATED_UNIVERSAL_TIME_OFFSET ( 1, 0, .AHEAD. ) ;
#85 = DATE_AND_TIME ( #22, #111 ) ;
#86 = EDGE_CURVE ( 'NONE', #219, #219, #75, .T. ) ;
#87 = CIRCLE ( 'NONE', #221, 1.499999999999998002 ) ;
#88 = DIRECTION ( 'NONE',  ( -4.275831445896958607E-31, -1.000000000000000000, -1.224646799147353207E-16 ) ) ;
#89 = APPLICATION_PROTOCOL_DEFINITION ( 'international standard', 'config_control_design', 1994, #128 ) ;
#90 = DIRECTION ( 'NONE',  ( -3.491481338843133355E-15, 1.224646799147353207E-16, -1.000000000000000000 ) ) ;
#91 = CC_DESIGN_DATE_AND_TIME_ASSIGNMENT ( #117, #183, ( #206 ) ) ;
#92 = PERSON_AND_ORGANIZATION ( #10, #58 ) ;
#93 = ORIENTED_EDGE ( 'NONE', *, *, #113, .T. ) ;
#94 = AXIS2_PLACEMENT_3D ( 'NONE', #218, #64, #119 ) ;
#95 = CONICAL_SURFACE ( 'NONE', #45, 6.499999999999998224, 0.2617993877991501850 ) ;
#96 = DIRECTION ( 'NONE',  ( 0.0000000000000000000, 1.000000000000000000, 0.0000000000000000000 ) ) ;
#97 = DIRECTION ( 'NONE',  ( -3.491481338843133355E-15, 1.224646799147353207E-16, -1.000000000000000000 ) ) ;
#98 = CARTESIAN_POINT ( 'NONE',  ( 2.080922877950507480E-13, -7.298894922918224927E-15, 59.60000000000000142 ) ) ;
#99 = EDGE_LOOP ( 'NONE', ( #153 ) ) ;
#100 = SECURITY_CLASSIFICATION_LEVEL ( 'unclassified' ) ;
#101 = DIRECTION ( 'NONE',  ( 0.0000000000000000000, -1.000000000000000000, 0.0000000000000000000 ) ) ;
#102 = DIRECTION ( 'NONE',  ( 0.0000000000000000000, 1.000000000000000000, 0.0000000000000000000 ) ) ;
#103 = PERSON_AND_ORGANIZATION ( #10, #58 ) ;
#104 = MANIFOLD_SOLID_BREP ( 'Corps-Déplacer/Copier1[1]', #26 ) ;
#105 = APPROVAL_STATUS ( 'not_yet_approved' ) ;
#106 = PRODUCT_RELATED_PRODUCT_CATEGORY ( 'detail', '', ( #170 ) ) ;
#107 = DIRECTION ( 'NONE',  ( 3.491481338843133355E-15, -1.224646799147353207E-16, 1.000000000000000000 ) ) ;
#108 = MECHANICAL_CONTEXT ( 'NONE', #115, 'mechanical' ) ;
#109 = EDGE_LOOP ( 'NONE', ( #83 ) ) ;
#110 = CIRCLE ( 'NONE', #13, 1.600000000000001421 ) ;
#111 = LOCAL_TIME ( 10, 33, 20.00000000000000000, #142 ) ;
#112 = EDGE_LOOP ( 'NONE', ( #36 ) ) ;
#113 = EDGE_CURVE ( 'NONE', #76, #76, #114, .T. ) ;
#114 = CIRCLE ( 'NONE', #25, 2.000000000000001332 ) ;
#115 = APPLICATION_CONTEXT ( 'configuration controlled 3d designs of mechanical parts and assemblies' ) ;
#116 = VERTEX_POINT ( 'NONE', #32 ) ;
#117 = DATE_AND_TIME ( #132, #187 ) ;
#118 = CONICAL_SURFACE ( 'NONE', #211, 1.600000000000001421, 0.7853981633974512766 ) ;
#119 = DIRECTION ( 'NONE',  ( -4.456761796588771413E-31, -1.000000000000000000, -1.276467311168695266E-16 ) ) ;
#120 = DIRECTION ( 'NONE',  ( -3.491481338843133355E-15, 1.224646799147353207E-16, -1.000000000000000000 ) ) ;
#121 = AXIS2_PLACEMENT_3D ( 'NONE', #222, #15, #186 ) ;
#122 = PERSON_AND_ORGANIZATION ( #10, #58 ) ;
#123 = CARTESIAN_POINT ( 'NONE',  ( -3.206893176760996436E-31, 1.124826709063585099E-32, -9.184907108292229064E-17 ) ) ;
#124 = CARTESIAN_POINT ( 'NONE',  ( 9.308377946195077470E-14, -3.403094278676150060E-15, 26.66025403784432868 ) ) ;
#125 = PERSON_AND_ORGANIZATION ( #10, #58 ) ;
#126 = APPROVAL_DATE_TIME ( #140, #177 ) ;
#127 = COORDINATED_UNIVERSAL_TIME_OFFSET ( 1, 0, .AHEAD. ) ;
#128 = APPLICATION_CONTEXT ( 'configuration controlled 3d designs of mechanical parts and assemblies' ) ;
#129 = ORIENTED_EDGE ( 'NONE', *, *, #165, .F. ) ;
#130 = DESIGN_CONTEXT ( 'detailed design', #128, 'design' ) ;
#131 = CC_DESIGN_PERSON_AND_ORGANIZATION_ASSIGNMENT ( #160, #199, ( #74 ) ) ;
#132 = CALENDAR_DATE ( 2021, 8, 12 ) ;
#133 = EDGE_LOOP ( 'NONE', ( #73 ) ) ;
#134 = CARTESIAN_POINT ( 'NONE',  ( -3.368048475777682952E-30, -1.499999999999998668, -9.646474229456003855E-16 ) ) ;
#135 = ORIENTED_EDGE ( 'NONE', *, *, #165, .T. ) ;
#136 =( LENGTH_UNIT ( ) NAMED_UNIT ( * ) SI_UNIT ( .MILLI., .METRE. ) );
#137 = DIRECTION ( 'NONE',  ( 4.275831445896958607E-31, 1.000000000000000000, 1.224646799147353207E-16 ) ) ;
#138 = DIRECTION ( 'NONE',  ( 3.491481338843133355E-15, -1.276467311168695266E-16, 1.000000000000000000 ) ) ;
#139 = CC_DESIGN_PERSON_AND_ORGANIZATION_ASSIGNMENT ( #103, #39, ( #54 ) ) ;
#140 = DATE_AND_TIME ( #38, #215 ) ;
#141 = FACE_OUTER_BOUND ( 'NONE', #99, .T. ) ;
#142 = COORDINATED_UNIVERSAL_TIME_OFFSET ( 1, 0, .AHEAD. ) ;
#143 = FACE_OUTER_BOUND ( 'NONE', #220, .T. ) ;
#144 = CC_DESIGN_SECURITY_CLASSIFICATION ( #206, ( #74 ) ) ;
#145 = APPROVAL ( #80, 'UNSPECIFIED' ) ;
#146 = ORIENTED_EDGE ( 'NONE', *, *, #59, .F. ) ;
#147 = ADVANCED_FACE ( 'NONE', ( #151 ), #37, .F. ) ;
#148 = CARTESIAN_POINT ( 'NONE',  ( 2.793185071074506684E-14, -1.499999999999999112, 8.000000000000000000 ) ) ;
#149 = CARTESIAN_POINT ( 'NONE',  ( -2.699534206289368204E-30, 7.524489584330192056E-32, -7.731773262702962682E-16 ) ) ;
#150 = ADVANCED_FACE ( 'NONE', ( #3, #197 ), #95, .T. ) ;
#151 = FACE_OUTER_BOUND ( 'NONE', #8, .T. ) ;
#152 = COORDINATED_UNIVERSAL_TIME_OFFSET ( 1, 0, .AHEAD. ) ;
#153 = ORIENTED_EDGE ( 'NONE', *, *, #113, .F. ) ;
#154 = CYLINDRICAL_SURFACE ( 'NONE', #121, 1.999999999999998224 ) ;
#155 = ADVANCED_FACE ( 'NONE', ( #141, #195 ), #118, .T. ) ;
#156 = DIRECTION ( 'NONE',  ( -4.275831445896958607E-31, -1.000000000000000000, -1.224646799147353207E-16 ) ) ;
#157 = CALENDAR_DATE ( 2021, 8, 12 ) ;
#158 = PERSON_AND_ORGANIZATION_ROLE ( 'design_owner' ) ;
#159 = CARTESIAN_POINT ( 'NONE',  ( 2.793185071074506684E-14, -1.021173848934956212E-15, 8.000000000000000000 ) ) ;
#160 = PERSON_AND_ORGANIZATION ( #10, #58 ) ;
#161 = PERSON_AND_ORGANIZATION_ROLE ( 'design_supplier' ) ;
#162 = CARTESIAN_POINT ( 'NONE',  ( 3.444704358586562248E-14, -1.999999999999999556, 9.866025403784430381 ) ) ;
#163 = VERTEX_POINT ( 'NONE', #162 ) ;
#164 = EDGE_LOOP ( 'NONE', ( #146 ) ) ;
#165 = EDGE_CURVE ( 'NONE', #11, #11, #87, .T. ) ;
#166 = CARTESIAN_POINT ( 'NONE',  ( 2.094888803305880013E-13, -7.347880794884118356E-15, 60.00000000000000000 ) ) ;
#167 = PERSON_AND_ORGANIZATION ( #10, #58 ) ;
#168 = ADVANCED_FACE ( 'NONE', ( #143 ), #212, .F. ) ;
#169 = FACE_OUTER_BOUND ( 'NONE', #109, .T. ) ;
#170 = PRODUCT ( '372644', '372644', '', ( #108 ) ) ;
#171 =( NAMED_UNIT ( * ) SI_UNIT ( $, .STERADIAN. ) SOLID_ANGLE_UNIT ( ) );
#172 = AXIS2_PLACEMENT_3D ( 'NONE', #202, #189, #101 ) ;
#173 = APPROVAL_ROLE ( '' ) ;
#174 = AXIS2_PLACEMENT_3D ( 'NONE', #208, #24, #42 ) ;
#175 = PERSON_AND_ORGANIZATION ( #10, #58 ) ;
#176 = DIRECTION ( 'NONE',  ( 3.491481338843133355E-15, -1.224646799147353207E-16, 1.000000000000000000 ) ) ;
#177 = APPROVAL ( #5, 'UNSPECIFIED' ) ;
#178 = ORIENTED_EDGE ( 'NONE', *, *, #86, .T. ) ;
#179 = APPROVAL_PERSON_ORGANIZATION ( #125, #177, #2 ) ;
#180 = ORIENTED_EDGE ( 'NONE', *, *, #86, .F. ) ;
#181 = MANIFOLD_SOLID_BREP ( 'Corps-Déplacer/Copier1[2]', #196 ) ;
#182 = AXIS2_PLACEMENT_3D ( 'NONE', #149, #50, #216 ) ;
#183 = DATE_TIME_ROLE ( 'classification_date' ) ;
#184 = CARTESIAN_POINT ( 'NONE',  ( 2.094888803305880013E-13, 1.199807826129476233E-32, 60.00000000000000000 ) ) ;
#185 = CARTESIAN_POINT ( 'NONE',  ( 2.080922877950507480E-13, 1.999999999999994005, 59.60000000000000142 ) ) ;
#186 = DIRECTION ( 'NONE',  ( 4.275831445896957731E-31, 1.000000000000000000, 1.224646799147353207E-16 ) ) ;
#187 = LOCAL_TIME ( 10, 33, 20.00000000000000000, #152 ) ;
#188 = CC_DESIGN_PERSON_AND_ORGANIZATION_ASSIGNMENT ( #167, #62, ( #206 ) ) ;
#189 = DIRECTION ( 'NONE',  ( -3.491481338843133355E-15, 1.276467311168695266E-16, -1.000000000000000000 ) ) ;
#190 = DIRECTION ( 'NONE',  ( 0.0000000000000000000, 1.000000000000000000, 0.0000000000000000000 ) ) ;
#191 = CC_DESIGN_APPROVAL ( #177, ( #54 ) ) ;
#192 = DATE_AND_TIME ( #56, #20 ) ;
#193 =( NAMED_UNIT ( * ) PLANE_ANGLE_UNIT ( ) SI_UNIT ( $, .RADIAN. ) );
#194 = ADVANCED_FACE ( 'NONE', ( #223 ), #67, .T. ) ;
#195 = FACE_BOUND ( 'NONE', #61, .T. ) ;
#196 = CLOSED_SHELL ( 'NONE', ( #194, #48, #147 ) ) ;
#197 = FACE_OUTER_BOUND ( 'NONE', #112, .T. ) ;
#198 = DIRECTION ( 'NONE',  ( 3.491481338843133355E-15, -1.276467311168695266E-16, 1.000000000000000000 ) ) ;
#199 = PERSON_AND_ORGANIZATION_ROLE ( 'creator' ) ;
#200 = AXIS2_PLACEMENT_3D ( 'NONE', #184, #204, #137 ) ;
#201 = CC_DESIGN_APPROVAL ( #145, ( #206 ) ) ;
#202 = CARTESIAN_POINT ( 'NONE',  ( 3.444704358586562248E-14, -1.259365891909075084E-15, 9.866025403784430381 ) ) ;
#203 = EDGE_CURVE ( 'NONE', #116, #116, #110, .T. ) ;
#204 = DIRECTION ( 'NONE',  ( -3.491481338843133355E-15, 1.224646799147353207E-16, -1.000000000000000000 ) ) ;
#205 = AXIS2_PLACEMENT_3D ( 'NONE', #214, #217, #30 ) ;
#206 = SECURITY_CLASSIFICATION ( '', '', #100 ) ;
#207 = APPROVAL_DATE_TIME ( #192, #145 ) ;
#208 = CARTESIAN_POINT ( 'NONE',  ( 0.0000000000000000000, 0.0000000000000000000, 0.0000000000000000000 ) ) ;
#209 = DATE_TIME_ROLE ( 'creation_date' ) ;
#210 = CC_DESIGN_DATE_AND_TIME_ASSIGNMENT ( #85, #209, ( #54 ) ) ;
#211 = AXIS2_PLACEMENT_3D ( 'NONE', #41, #90, #102 ) ;
#212 = PLANE ( 'NONE',  #77 ) ;
#213 = EDGE_LOOP ( 'NONE', ( #178 ) ) ;
#214 = CARTESIAN_POINT ( 'NONE',  ( 2.793185071074506684E-14, 1.499759782661852681E-32, 8.000000000000000000 ) ) ;
#215 = LOCAL_TIME ( 10, 33, 20.00000000000000000, #84 ) ;
#216 = DIRECTION ( 'NONE',  ( -4.456761796588771413E-31, -1.000000000000000000, -1.276467311168695019E-16 ) ) ;
#217 = DIRECTION ( 'NONE',  ( 3.491481338843133355E-15, -1.224646799147353207E-16, 1.000000000000000000 ) ) ;
#218 = CARTESIAN_POINT ( 'NONE',  ( -6.413839710158237013E-31, 0.0000000000000000000, -1.836996703606440502E-16 ) ) ;
#219 = VERTEX_POINT ( 'NONE', #12 ) ;
#220 = EDGE_LOOP ( 'NONE', ( #129 ) ) ;
#221 = AXIS2_PLACEMENT_3D ( 'NONE', #159, #6, #71 ) ;
#222 = CARTESIAN_POINT ( 'NONE',  ( 0.0000000000000000000, 0.0000000000000000000, 0.0000000000000000000 ) ) ;
#223 = FACE_OUTER_BOUND ( 'NONE', #213, .T. ) ;
ENDSEC;
END-ISO-10303-21;
