ISO-10303-21;
HEADER;
FILE_DESCRIPTION (( 'STEP AP203' ),
    '1' );
FILE_NAME ('372643.step',
    '2021-12-08T09:33:20',
    ( '' ),
    ( '' ),
    'SwSTEP 2.0',
    'SolidWorks 2019',
    '' );
FILE_SCHEMA (( 'CONFIG_CONTROL_DESIGN' ));
ENDSEC;

DATA;
#1 = CARTESIAN_POINT ( 'NONE',  ( 5.237222008264700033E-14, 1.124819836996387869E-32, 15.00000000000000000 ) ) ;
#2 = CARTESIAN_POINT ( 'NONE',  ( -4.275787679642358594E-31, 1.499744431526220583E-32, -1.224634263993831595E-16 ) ) ;
#3 = CC_DESIGN_PERSON_AND_ORGANIZATION_ASSIGNMENT ( #194, #99, ( #89 ) ) ;
#4 = DATE_AND_TIME ( #61, #148 ) ;
#5 = DIRECTION ( 'NONE',  ( -3.491481338843133355E-15, 1.224646799147353207E-16, -1.000000000000000000 ) ) ;
#6 = CIRCLE ( 'NONE', #54, 1.500000000000001776 ) ;
#7 = DATE_AND_TIME ( #160, #63 ) ;
#8 = PLANE ( 'NONE',  #138 ) ;
#9 = DATE_AND_TIME ( #159, #101 ) ;
#10 = PERSON_AND_ORGANIZATION ( #27, #151 ) ;
#11 = CARTESIAN_POINT ( 'NONE',  ( 1.735266225405037467E-13, -6.086494591762345225E-15, 49.70000000000000284 ) ) ;
#12 = CARTESIAN_POINT ( 'NONE',  ( 1.745740669421566678E-13, 1.199999999999995515, 50.00000000000000000 ) ) ;
#13 = CC_DESIGN_APPROVAL ( #124, ( #89 ) ) ;
#14 = FACE_OUTER_BOUND ( 'NONE', #182, .T. ) ;
#15 = CC_DESIGN_PERSON_AND_ORGANIZATION_ASSIGNMENT ( #199, #38, ( #89 ) ) ;
#16 = APPLICATION_PROTOCOL_DEFINITION ( 'international standard', 'config_control_design', 1994, #156 ) ;
#17 = VERTEX_POINT ( 'NONE', #81 ) ;
#18 = APPROVAL_STATUS ( 'not_yet_approved' ) ;
#19 = PLANE ( 'NONE',  #167 ) ;
#20 = CIRCLE ( 'NONE', #142, 1.499999999999996225 ) ;
#21 = DIRECTION ( 'NONE',  ( 3.491481338843133355E-15, -1.224646799147353207E-16, 1.000000000000000000 ) ) ;
#22 = ADVANCED_FACE ( 'NONE', ( #44 ), #47, .F. ) ;
#23 = PRODUCT_DEFINITION_SHAPE ( 'NONE', 'NONE',  #98 ) ;
#24 = AXIS2_PLACEMENT_3D ( 'NONE', #110, #132, #75 ) ;
#25 = CLOSED_SHELL ( 'NONE', ( #22, #153, #113, #139 ) ) ;
#26 = PERSON_AND_ORGANIZATION_ROLE ( 'design_owner' ) ;
#27 = PERSON ( 'UNSPECIFIED', 'UNSPECIFIED', 'UNSPECIFIED', ('UNSPECIFIED'), ('UNSPECIFIED'), ('UNSPECIFIED') ) ;
#28 = EDGE_LOOP ( 'NONE', ( #169 ) ) ;
#29 = APPLICATION_PROTOCOL_DEFINITION ( 'international standard', 'config_control_design', 1994, #179 ) ;
#30 = SECURITY_CLASSIFICATION ( '', '', #57 ) ;
#31 = ORIENTED_EDGE ( 'NONE', *, *, #87, .T. ) ;
#32 = EDGE_LOOP ( 'NONE', ( #163 ) ) ;
#33 = APPROVAL_STATUS ( 'not_yet_approved' ) ;
#34 = CYLINDRICAL_SURFACE ( 'NONE', #175, 1.499999999999998890 ) ;
#35 = LOCAL_TIME ( 10, 33, 20.00000000000000000, #78 ) ;
#36 = CARTESIAN_POINT ( 'NONE',  ( 5.237222008264700033E-14, -1.836970198721029589E-15, 15.00000000000000000 ) ) ;
#37 = EDGE_CURVE ( 'NONE', #53, #53, #20, .T. ) ;
#38 = PERSON_AND_ORGANIZATION_ROLE ( 'creator' ) ;
#39 = MANIFOLD_SOLID_BREP ( 'Corps-Déplacer/Copier1[1]', #25 ) ;
#40 = CC_DESIGN_PERSON_AND_ORGANIZATION_ASSIGNMENT ( #165, #141, ( #98 ) ) ;
#41 = APPROVAL_STATUS ( 'not_yet_approved' ) ;
#42 = DIRECTION ( 'NONE',  ( 1.000000000000000000, 0.0000000000000000000, 0.0000000000000000000 ) ) ;
#43 = DATE_AND_TIME ( #100, #35 ) ;
#44 = FACE_OUTER_BOUND ( 'NONE', #28, .T. ) ;
#45 = PERSON_AND_ORGANIZATION ( #27, #151 ) ;
#46 = CYLINDRICAL_SURFACE ( 'NONE', #193, 1.499999999999995115 ) ;
#47 = PLANE ( 'NONE',  #24 ) ;
#48 = APPROVAL_PERSON_ORGANIZATION ( #45, #124, #136 ) ;
#49 = COORDINATED_UNIVERSAL_TIME_OFFSET ( 1, 0, .AHEAD. ) ;
#50 = VERTEX_POINT ( 'NONE', #130 ) ;
#51 = DIRECTION ( 'NONE',  ( 4.275831445896958607E-31, 1.000000000000000000, 1.224646799147353454E-16 ) ) ;
#52 = PRODUCT_RELATED_PRODUCT_CATEGORY ( 'detail', '', ( #121 ) ) ;
#53 = VERTEX_POINT ( 'NONE', #114 ) ;
#54 = AXIS2_PLACEMENT_3D ( 'NONE', #11, #140, #62 ) ;
#55 = DATE_TIME_ROLE ( 'classification_date' ) ;
#56 = DIRECTION ( 'NONE',  ( -3.491481338843133355E-15, 1.224646799147353207E-16, -1.000000000000000000 ) ) ;
#57 = SECURITY_CLASSIFICATION_LEVEL ( 'unclassified' ) ;
#58 = PLANE ( 'NONE',  #150 ) ;
#59 = CC_DESIGN_PERSON_AND_ORGANIZATION_ASSIGNMENT ( #196, #157, ( #30 ) ) ;
#60 = APPROVAL_DATE_TIME ( #9, #137 ) ;
#61 = CALENDAR_DATE ( 2021, 8, 12 ) ;
#62 = DIRECTION ( 'NONE',  ( 0.0000000000000000000, 1.000000000000000000, 0.0000000000000000000 ) ) ;
#63 = LOCAL_TIME ( 10, 33, 20.00000000000000000, #73 ) ;
#64 = FACE_OUTER_BOUND ( 'NONE', #104, .T. ) ;
#65 = ORIENTED_EDGE ( 'NONE', *, *, #171, .F. ) ;
#66 = UNCERTAINTY_MEASURE_WITH_UNIT (LENGTH_MEASURE( 1.000000000000000082E-05 ), #119, 'distance_accuracy_value', 'NONE');
#67 = APPROVAL ( #33, 'UNSPECIFIED' ) ;
#68 = DIRECTION ( 'NONE',  ( 3.491481338843133355E-15, -1.224646799147353207E-16, 1.000000000000000000 ) ) ;
#69 = CC_DESIGN_SECURITY_CLASSIFICATION ( #30, ( #89 ) ) ;
#70 = CONICAL_SURFACE ( 'NONE', #180, 1.200000000000001732, 0.7853981633974457255 ) ;
#71 = DIRECTION ( 'NONE',  ( -3.491481338843133355E-15, 1.224646799147353207E-16, -1.000000000000000000 ) ) ;
#72 = CARTESIAN_POINT ( 'NONE',  ( 0.0000000000000000000, 0.0000000000000000000, 0.0000000000000000000 ) ) ;
#73 = COORDINATED_UNIVERSAL_TIME_OFFSET ( 1, 0, .AHEAD. ) ;
#74 = EDGE_CURVE ( 'NONE', #17, #17, #6, .T. ) ;
#75 = DIRECTION ( 'NONE',  ( -4.275831445896958607E-31, -1.000000000000000000, -1.224646799147353207E-16 ) ) ;
#76 = CC_DESIGN_PERSON_AND_ORGANIZATION_ASSIGNMENT ( #10, #26, ( #121 ) ) ;
#77 = CIRCLE ( 'NONE', #102, 1.499999999999996225 ) ;
#78 = COORDINATED_UNIVERSAL_TIME_OFFSET ( 1, 0, .AHEAD. ) ;
#79 = FACE_OUTER_BOUND ( 'NONE', #32, .T. ) ;
#80 = COORDINATED_UNIVERSAL_TIME_OFFSET ( 1, 0, .AHEAD. ) ;
#81 = CARTESIAN_POINT ( 'NONE',  ( 1.735266225405037467E-13, 1.499999999999995781, 49.70000000000000284 ) ) ;
#82 = ADVANCED_FACE ( 'NONE', ( #183, #64 ), #46, .T. ) ;
#83 = FACE_OUTER_BOUND ( 'NONE', #203, .T. ) ;
#84 = FACE_OUTER_BOUND ( 'NONE', #152, .T. ) ;
#85 = PERSON_AND_ORGANIZATION ( #27, #151 ) ;
#86 = MECHANICAL_CONTEXT ( 'NONE', #156, 'mechanical' ) ;
#87 = EDGE_CURVE ( 'NONE', #50, #50, #77, .T. ) ;
#88 = CIRCLE ( 'NONE', #122, 1.200000000000001732 ) ;
#89 = PRODUCT_DEFINITION_FORMATION_WITH_SPECIFIED_SOURCE ( 'ANY', '', #121, .NOT_KNOWN. ) ;
#90 = DIRECTION ( 'NONE',  ( -3.491481338843133355E-15, 1.224646799147353207E-16, -1.000000000000000000 ) ) ;
#91 = PERSON_AND_ORGANIZATION ( #27, #151 ) ;
#92 = VERTEX_POINT ( 'NONE', #12 ) ;
#93 = APPROVAL_PERSON_ORGANIZATION ( #91, #67, #94 ) ;
#94 = APPROVAL_ROLE ( '' ) ;
#95 = CARTESIAN_POINT ( 'NONE',  ( 1.745740669421566678E-13, -6.123233995736766085E-15, 50.00000000000000000 ) ) ;
#96 = CARTESIAN_POINT ( 'NONE',  ( 1.745740669421566678E-13, -6.123233995736766085E-15, 50.00000000000000000 ) ) ;
#97 = DIRECTION ( 'NONE',  ( -3.491481338843133355E-15, 1.224646799147353207E-16, -1.000000000000000000 ) ) ;
#98 = PRODUCT_DEFINITION ( 'UNKNOWN', '', #89, #187 ) ;
#99 = PERSON_AND_ORGANIZATION_ROLE ( 'design_supplier' ) ;
#100 = CALENDAR_DATE ( 2021, 8, 12 ) ;
#101 = LOCAL_TIME ( 10, 33, 20.00000000000000000, #116 ) ;
#102 = AXIS2_PLACEMENT_3D ( 'NONE', #36, #97, #197 ) ;
#103 = DATE_AND_TIME ( #189, #166 ) ;
#104 = EDGE_LOOP ( 'NONE', ( #31 ) ) ;
#105 = MANIFOLD_SOLID_BREP ( 'Corps-Déplacer/Copier1[2]', #115 ) ;
#106 = ORIENTED_EDGE ( 'NONE', *, *, #192, .F. ) ;
#107 = CARTESIAN_POINT ( 'NONE',  ( 0.0000000000000000000, 0.0000000000000000000, 0.0000000000000000000 ) ) ;
#108 =( NAMED_UNIT ( * ) PLANE_ANGLE_UNIT ( ) SI_UNIT ( $, .RADIAN. ) );
#109 = CARTESIAN_POINT ( 'NONE',  ( -2.137828190439304676E-31, 1.499999999999994005, -6.122983292666407743E-17 ) ) ;
#110 = CARTESIAN_POINT ( 'NONE',  ( 5.237222008264700033E-14, 1.124819836996387869E-32, 15.00000000000000000 ) ) ;
#111 = ADVANCED_BREP_SHAPE_REPRESENTATION ( '372643', ( #39, #105, #146 ), #120 ) ;
#112 = FACE_OUTER_BOUND ( 'NONE', #170, .T. ) ;
#113 = ADVANCED_FACE ( 'NONE', ( #112, #149 ), #70, .T. ) ;
#114 = CARTESIAN_POINT ( 'NONE',  ( 5.237222008264700033E-14, 1.499999999999994449, 15.00000000000000000 ) ) ;
#115 = CLOSED_SHELL ( 'NONE', ( #202, #82, #128 ) ) ;
#116 = COORDINATED_UNIVERSAL_TIME_OFFSET ( 1, 0, .AHEAD. ) ;
#117 = DIRECTION ( 'NONE',  ( 4.275831445896958607E-31, 1.000000000000000000, 1.224646799147353207E-16 ) ) ;
#118 = DIRECTION ( 'NONE',  ( 0.0000000000000000000, 1.000000000000000000, 0.0000000000000000000 ) ) ;
#119 =( LENGTH_UNIT ( ) NAMED_UNIT ( * ) SI_UNIT ( .MILLI., .METRE. ) );
#120 =( GEOMETRIC_REPRESENTATION_CONTEXT ( 3 ) GLOBAL_UNCERTAINTY_ASSIGNED_CONTEXT ( ( #66 ) ) GLOBAL_UNIT_ASSIGNED_CONTEXT ( ( #119, #108, #172 ) ) REPRESENTATION_CONTEXT ( 'NONE', 'WORKASPACE' ) );
#121 = PRODUCT ( '372643', '372643', '', ( #86 ) ) ;
#122 = AXIS2_PLACEMENT_3D ( 'NONE', #95, #5, #190 ) ;
#123 = EDGE_LOOP ( 'NONE', ( #144 ) ) ;
#124 = APPROVAL ( #18, 'UNSPECIFIED' ) ;
#125 = DATE_TIME_ROLE ( 'creation_date' ) ;
#126 = EDGE_LOOP ( 'NONE', ( #184 ) ) ;
#127 = VERTEX_POINT ( 'NONE', #109 ) ;
#128 = ADVANCED_FACE ( 'NONE', ( #174 ), #19, .T. ) ;
#129 = EDGE_LOOP ( 'NONE', ( #106 ) ) ;
#130 = CARTESIAN_POINT ( 'NONE',  ( 5.237222008264700033E-14, 1.499999999999994449, 15.00000000000000000 ) ) ;
#131 = CC_DESIGN_APPROVAL ( #137, ( #30 ) ) ;
#132 = DIRECTION ( 'NONE',  ( 3.491481338843133355E-15, -1.224646799147353207E-16, 1.000000000000000000 ) ) ;
#133 = DIRECTION ( 'NONE',  ( -4.275831445896958607E-31, -1.000000000000000000, -1.224646799147353207E-16 ) ) ;
#134 = DIRECTION ( 'NONE',  ( -4.275831445896958607E-31, -1.000000000000000000, -1.224646799147353207E-16 ) ) ;
#135 = CARTESIAN_POINT ( 'NONE',  ( -8.551575359284717187E-31, 2.999488863052441167E-32, -2.449268527987663189E-16 ) ) ;
#136 = APPROVAL_ROLE ( '' ) ;
#137 = APPROVAL ( #41, 'UNSPECIFIED' ) ;
#138 = AXIS2_PLACEMENT_3D ( 'NONE', #188, #155, #154 ) ;
#139 = ADVANCED_FACE ( 'NONE', ( #83 ), #8, .F. ) ;
#140 = DIRECTION ( 'NONE',  ( -3.491481338843133355E-15, 1.224646799147353207E-16, -1.000000000000000000 ) ) ;
#141 = PERSON_AND_ORGANIZATION_ROLE ( 'creator' ) ;
#142 = AXIS2_PLACEMENT_3D ( 'NONE', #200, #90, #162 ) ;
#143 = CC_DESIGN_DATE_AND_TIME_ASSIGNMENT ( #43, #125, ( #98 ) ) ;
#144 = ORIENTED_EDGE ( 'NONE', *, *, #171, .T. ) ;
#145 = ORIENTED_EDGE ( 'NONE', *, *, #192, .T. ) ;
#146 = AXIS2_PLACEMENT_3D ( 'NONE', #178, #158, #42 ) ;
#147 = DIRECTION ( 'NONE',  ( 4.275831445896958607E-31, 1.000000000000000000, 1.224646799147353207E-16 ) ) ;
#148 = LOCAL_TIME ( 10, 33, 20.00000000000000000, #80 ) ;
#149 = FACE_BOUND ( 'NONE', #123, .T. ) ;
#150 = AXIS2_PLACEMENT_3D ( 'NONE', #2, #68, #134 ) ;
#151 = ORGANIZATION ( 'UNSPECIFIED', 'UNSPECIFIED', '' ) ;
#152 = EDGE_LOOP ( 'NONE', ( #186 ) ) ;
#153 = ADVANCED_FACE ( 'NONE', ( #84, #79 ), #34, .T. ) ;
#154 = DIRECTION ( 'NONE',  ( 4.275831445896958607E-31, 1.000000000000000000, 1.224646799147353207E-16 ) ) ;
#155 = DIRECTION ( 'NONE',  ( -3.491481338843133355E-15, 1.224646799147353207E-16, -1.000000000000000000 ) ) ;
#156 = APPLICATION_CONTEXT ( 'configuration controlled 3d designs of mechanical parts and assemblies' ) ;
#157 = PERSON_AND_ORGANIZATION_ROLE ( 'classification_officer' ) ;
#158 = DIRECTION ( 'NONE',  ( 0.0000000000000000000, 0.0000000000000000000, 1.000000000000000000 ) ) ;
#159 = CALENDAR_DATE ( 2021, 8, 12 ) ;
#160 = CALENDAR_DATE ( 2021, 8, 12 ) ;
#161 = APPROVAL_DATE_TIME ( #103, #67 ) ;
#162 = DIRECTION ( 'NONE',  ( 0.0000000000000000000, 1.000000000000000000, 0.0000000000000000000 ) ) ;
#163 = ORIENTED_EDGE ( 'NONE', *, *, #74, .T. ) ;
#164 = DIRECTION ( 'NONE',  ( -3.491481338843133355E-15, 1.224646799147353207E-16, -1.000000000000000000 ) ) ;
#165 = PERSON_AND_ORGANIZATION ( #27, #151 ) ;
#166 = LOCAL_TIME ( 10, 33, 20.00000000000000000, #49 ) ;
#167 = AXIS2_PLACEMENT_3D ( 'NONE', #1, #21, #133 ) ;
#168 = CIRCLE ( 'NONE', #185, 1.499999999999994005 ) ;
#169 = ORIENTED_EDGE ( 'NONE', *, *, #37, .T. ) ;
#170 = EDGE_LOOP ( 'NONE', ( #201 ) ) ;
#171 = EDGE_CURVE ( 'NONE', #92, #92, #88, .T. ) ;
#172 =( NAMED_UNIT ( * ) SI_UNIT ( $, .STERADIAN. ) SOLID_ANGLE_UNIT ( ) );
#173 = APPROVAL_ROLE ( '' ) ;
#174 = FACE_OUTER_BOUND ( 'NONE', #126, .T. ) ;
#175 = AXIS2_PLACEMENT_3D ( 'NONE', #72, #71, #51 ) ;
#176 = SHAPE_DEFINITION_REPRESENTATION ( #23, #111 ) ;
#177 = APPROVAL_DATE_TIME ( #7, #124 ) ;
#178 = CARTESIAN_POINT ( 'NONE',  ( 0.0000000000000000000, 0.0000000000000000000, 0.0000000000000000000 ) ) ;
#179 = APPLICATION_CONTEXT ( 'configuration controlled 3d designs of mechanical parts and assemblies' ) ;
#180 = AXIS2_PLACEMENT_3D ( 'NONE', #96, #195, #118 ) ;
#181 = CC_DESIGN_DATE_AND_TIME_ASSIGNMENT ( #4, #55, ( #30 ) ) ;
#182 = EDGE_LOOP ( 'NONE', ( #145 ) ) ;
#183 = FACE_OUTER_BOUND ( 'NONE', #129, .T. ) ;
#184 = ORIENTED_EDGE ( 'NONE', *, *, #87, .F. ) ;
#185 = AXIS2_PLACEMENT_3D ( 'NONE', #135, #56, #117 ) ;
#186 = ORIENTED_EDGE ( 'NONE', *, *, #37, .F. ) ;
#187 = DESIGN_CONTEXT ( 'detailed design', #179, 'design' ) ;
#188 = CARTESIAN_POINT ( 'NONE',  ( 1.745740669421566678E-13, 8.998558695971067645E-33, 50.00000000000000000 ) ) ;
#189 = CALENDAR_DATE ( 2021, 8, 12 ) ;
#190 = DIRECTION ( 'NONE',  ( 0.0000000000000000000, 1.000000000000000000, 0.0000000000000000000 ) ) ;
#191 = APPROVAL_PERSON_ORGANIZATION ( #85, #137, #173 ) ;
#192 = EDGE_CURVE ( 'NONE', #127, #127, #168, .T. ) ;
#193 = AXIS2_PLACEMENT_3D ( 'NONE', #107, #164, #147 ) ;
#194 = PERSON_AND_ORGANIZATION ( #27, #151 ) ;
#195 = DIRECTION ( 'NONE',  ( -3.491481338843133355E-15, 1.224646799147353207E-16, -1.000000000000000000 ) ) ;
#196 = PERSON_AND_ORGANIZATION ( #27, #151 ) ;
#197 = DIRECTION ( 'NONE',  ( 0.0000000000000000000, 1.000000000000000000, 0.0000000000000000000 ) ) ;
#198 = CC_DESIGN_APPROVAL ( #67, ( #98 ) ) ;
#199 = PERSON_AND_ORGANIZATION ( #27, #151 ) ;
#200 = CARTESIAN_POINT ( 'NONE',  ( 5.237222008264700033E-14, -1.836970198721029589E-15, 15.00000000000000000 ) ) ;
#201 = ORIENTED_EDGE ( 'NONE', *, *, #74, .F. ) ;
#202 = ADVANCED_FACE ( 'NONE', ( #14 ), #58, .F. ) ;
#203 = EDGE_LOOP ( 'NONE', ( #65 ) ) ;
ENDSEC;
END-ISO-10303-21;
