ISO-10303-21;
HEADER;
FILE_DESCRIPTION (( 'STEP AP203' ),
    '1' );
FILE_NAME ('372642.step',
    '2021-12-08T09:33:19',
    ( '' ),
    ( '' ),
    'SwSTEP 2.0',
    'SolidWorks 2019',
    '' );
FILE_SCHEMA (( 'CONFIG_CONTROL_DESIGN' ));
ENDSEC;

DATA;
#1 = DIRECTION ( 'NONE',  ( 4.275831445896958607E-31, 1.000000000000000000, 1.224646799147353207E-16 ) ) ;
#2 = DIRECTION ( 'NONE',  ( 1.000000000000000000, 0.0000000000000000000, 0.0000000000000000000 ) ) ;
#3 = CC_DESIGN_DATE_AND_TIME_ASSIGNMENT ( #57, #99, ( #184 ) ) ;
#4 = EDGE_LOOP ( 'NONE', ( #55 ) ) ;
#5 = UNCERTAINTY_MEASURE_WITH_UNIT (LENGTH_MEASURE( 1.000000000000000082E-05 ), #87, 'distance_accuracy_value', 'NONE');
#6 = CARTESIAN_POINT ( 'NONE',  ( 1.326762908760390423E-13, -4.653657836759941941E-15, 38.00000000000000000 ) ) ;
#7 = AXIS2_PLACEMENT_3D ( 'NONE', #95, #137, #54 ) ;
#8 = APPROVAL_DATE_TIME ( #136, #138 ) ;
#9 = COORDINATED_UNIVERSAL_TIME_OFFSET ( 1, 0, .AHEAD. ) ;
#10 = FACE_OUTER_BOUND ( 'NONE', #38, .T. ) ;
#11 = CLOSED_SHELL ( 'NONE', ( #177, #22, #118 ) ) ;
#12 = PERSON_AND_ORGANIZATION_ROLE ( 'classification_officer' ) ;
#13 = CARTESIAN_POINT ( 'NONE',  ( -8.551662317069011934E-31, 2.999519363737355218E-32, -2.449293433686951456E-16 ) ) ;
#14 = VERTEX_POINT ( 'NONE', #81 ) ;
#15 = FACE_OUTER_BOUND ( 'NONE', #96, .T. ) ;
#16 = PLANE ( 'NONE',  #26 ) ;
#17 = EDGE_CURVE ( 'NONE', #124, #124, #181, .T. ) ;
#18 = VERTEX_POINT ( 'NONE', #100 ) ;
#19 = PERSON_AND_ORGANIZATION ( #72, #25 ) ;
#20 = EDGE_LOOP ( 'NONE', ( #131 ) ) ;
#21 = PRODUCT_DEFINITION_SHAPE ( 'NONE', 'NONE',  #184 ) ;
#22 = ADVANCED_FACE ( 'NONE', ( #88, #73 ), #159, .T. ) ;
#23 = CARTESIAN_POINT ( 'NONE',  ( 3.491481338843133355E-14, -1.224646799147353256E-15, 10.00000000000000000 ) ) ;
#24 = EDGE_CURVE ( 'NONE', #31, #31, #127, .T. ) ;
#25 = ORGANIZATION ( 'UNSPECIFIED', 'UNSPECIFIED', '' ) ;
#26 = AXIS2_PLACEMENT_3D ( 'NONE', #110, #150, #197 ) ;
#27 = PERSON_AND_ORGANIZATION_ROLE ( 'creator' ) ;
#28 = FACE_OUTER_BOUND ( 'NONE', #186, .T. ) ;
#29 = PERSON_AND_ORGANIZATION_ROLE ( 'design_supplier' ) ;
#30 = APPROVAL_DATE_TIME ( #121, #37 ) ;
#31 = VERTEX_POINT ( 'NONE', #149 ) ;
#32 = ORIENTED_EDGE ( 'NONE', *, *, #24, .F. ) ;
#33 = DIRECTION ( 'NONE',  ( -4.275831445896958607E-31, -1.000000000000000000, -1.224646799147353207E-16 ) ) ;
#34 = AXIS2_PLACEMENT_3D ( 'NONE', #120, #135, #191 ) ;
#35 = AXIS2_PLACEMENT_3D ( 'NONE', #201, #71, #2 ) ;
#36 = PERSON_AND_ORGANIZATION ( #72, #25 ) ;
#37 = APPROVAL ( #86, 'UNSPECIFIED' ) ;
#38 = EDGE_LOOP ( 'NONE', ( #133 ) ) ;
#39 = APPLICATION_PROTOCOL_DEFINITION ( 'international standard', 'config_control_design', 1994, #116 ) ;
#40 = CC_DESIGN_PERSON_AND_ORGANIZATION_ASSIGNMENT ( #102, #70, ( #92 ) ) ;
#41 = AXIS2_PLACEMENT_3D ( 'NONE', #23, #182, #151 ) ;
#42 = COORDINATED_UNIVERSAL_TIME_OFFSET ( 1, 0, .AHEAD. ) ;
#43 = EDGE_CURVE ( 'NONE', #14, #14, #103, .T. ) ;
#44 = CLOSED_SHELL ( 'NONE', ( #132, #163, #153, #145 ) ) ;
#45 = APPROVAL_PERSON_ORGANIZATION ( #49, #138, #46 ) ;
#46 = APPROVAL_ROLE ( '' ) ;
#47 = ORIENTED_EDGE ( 'NONE', *, *, #43, .F. ) ;
#48 = SECURITY_CLASSIFICATION_LEVEL ( 'unclassified' ) ;
#49 = PERSON_AND_ORGANIZATION ( #72, #25 ) ;
#50 = DIRECTION ( 'NONE',  ( -3.491481338843133355E-15, 1.224646799147353207E-16, -1.000000000000000000 ) ) ;
#51 = ORIENTED_EDGE ( 'NONE', *, *, #157, .F. ) ;
#52 = APPROVAL ( #200, 'UNSPECIFIED' ) ;
#53 = PLANE ( 'NONE',  #119 ) ;
#54 = DIRECTION ( 'NONE',  ( 4.275831445896958607E-31, 1.000000000000000000, 1.224646799147353207E-16 ) ) ;
#55 = ORIENTED_EDGE ( 'NONE', *, *, #17, .F. ) ;
#56 =( NAMED_UNIT ( * ) SI_UNIT ( $, .STERADIAN. ) SOLID_ANGLE_UNIT ( ) );
#57 = DATE_AND_TIME ( #189, #77 ) ;
#58 = CC_DESIGN_APPROVAL ( #138, ( #190 ) ) ;
#59 = CC_DESIGN_SECURITY_CLASSIFICATION ( #190, ( #142 ) ) ;
#60 = APPROVAL_ROLE ( '' ) ;
#61 = DATE_AND_TIME ( #80, #117 ) ;
#62 = CIRCLE ( 'NONE', #98, 1.499999999999997335 ) ;
#63 = DIRECTION ( 'NONE',  ( -4.275831445896958607E-31, -1.000000000000000000, -1.224646799147353207E-16 ) ) ;
#64 = CC_DESIGN_APPROVAL ( #52, ( #184 ) ) ;
#65 = DIRECTION ( 'NONE',  ( -3.491481338843133355E-15, 1.224646799147353207E-16, -1.000000000000000000 ) ) ;
#66 = DIRECTION ( 'NONE',  ( -3.491481338843133355E-15, 1.224646799147353207E-16, -1.000000000000000000 ) ) ;
#67 = APPROVAL_ROLE ( '' ) ;
#68 = AXIS2_PLACEMENT_3D ( 'NONE', #178, #195, #63 ) ;
#69 = PERSON_AND_ORGANIZATION_ROLE ( 'creator' ) ;
#70 = PERSON_AND_ORGANIZATION_ROLE ( 'design_owner' ) ;
#71 = DIRECTION ( 'NONE',  ( 0.0000000000000000000, 0.0000000000000000000, 1.000000000000000000 ) ) ;
#72 = PERSON ( 'UNSPECIFIED', 'UNSPECIFIED', 'UNSPECIFIED', ('UNSPECIFIED'), ('UNSPECIFIED'), ('UNSPECIFIED') ) ;
#73 = FACE_OUTER_BOUND ( 'NONE', #160, .T. ) ;
#74 = EDGE_CURVE ( 'NONE', #185, #185, #173, .T. ) ;
#75 = APPROVAL_PERSON_ORGANIZATION ( #152, #37, #67 ) ;
#76 = PLANE ( 'NONE',  #68 ) ;
#77 = LOCAL_TIME ( 10, 33, 19.00000000000000000, #129 ) ;
#78 = PERSON_AND_ORGANIZATION ( #72, #25 ) ;
#79 = DIRECTION ( 'NONE',  ( 3.491481338843133355E-15, -1.224646799147353207E-16, 1.000000000000000000 ) ) ;
#80 = CALENDAR_DATE ( 2021, 8, 12 ) ;
#81 = CARTESIAN_POINT ( 'NONE',  ( 3.491481338843133355E-14, 1.499999999999993783, 10.00000000000000000 ) ) ;
#82 = CARTESIAN_POINT ( 'NONE',  ( 3.491481338843133355E-14, -1.224646799147353256E-15, 10.00000000000000000 ) ) ;
#83 = AXIS2_PLACEMENT_3D ( 'NONE', #93, #79, #33 ) ;
#84 = EDGE_LOOP ( 'NONE', ( #47 ) ) ;
#85 = DIRECTION ( 'NONE',  ( 0.0000000000000000000, 1.000000000000000000, 0.0000000000000000000 ) ) ;
#86 = APPROVAL_STATUS ( 'not_yet_approved' ) ;
#87 =( LENGTH_UNIT ( ) NAMED_UNIT ( * ) SI_UNIT ( .MILLI., .METRE. ) );
#88 = FACE_OUTER_BOUND ( 'NONE', #4, .T. ) ;
#89 = AXIS2_PLACEMENT_3D ( 'NONE', #164, #50, #85 ) ;
#90 = DIRECTION ( 'NONE',  ( -4.275831445896958607E-31, -1.000000000000000000, -1.224646799147353207E-16 ) ) ;
#91 = PERSON_AND_ORGANIZATION ( #72, #25 ) ;
#92 = PRODUCT ( '372642', '372642', '', ( #192 ) ) ;
#93 = CARTESIAN_POINT ( 'NONE',  ( 3.491481338843133355E-14, 1.124819836996387458E-32, 10.00000000000000000 ) ) ;
#94 = DIRECTION ( 'NONE',  ( 3.491481338843133355E-15, -1.224646799147353207E-16, 1.000000000000000000 ) ) ;
#95 = CARTESIAN_POINT ( 'NONE',  ( 0.0000000000000000000, 0.0000000000000000000, 0.0000000000000000000 ) ) ;
#96 = EDGE_LOOP ( 'NONE', ( #125 ) ) ;
#97 = AXIS2_PLACEMENT_3D ( 'NONE', #13, #65, #1 ) ;
#98 = AXIS2_PLACEMENT_3D ( 'NONE', #198, #66, #180 ) ;
#99 = DATE_TIME_ROLE ( 'creation_date' ) ;
#100 = CARTESIAN_POINT ( 'NONE',  ( 1.316288464743861212E-13, 1.499999999999992895, 37.69999999999999574 ) ) ;
#101 = ORIENTED_EDGE ( 'NONE', *, *, #74, .F. ) ;
#102 = PERSON_AND_ORGANIZATION ( #72, #25 ) ;
#103 = CIRCLE ( 'NONE', #41, 1.499999999999995115 ) ;
#104 = APPROVAL_PERSON_ORGANIZATION ( #19, #52, #60 ) ;
#105 = COORDINATED_UNIVERSAL_TIME_OFFSET ( 1, 0, .AHEAD. ) ;
#106 = PRODUCT_RELATED_PRODUCT_CATEGORY ( 'detail', '', ( #92 ) ) ;
#107 = EDGE_LOOP ( 'NONE', ( #51 ) ) ;
#108 = EDGE_LOOP ( 'NONE', ( #32 ) ) ;
#109 = PERSON_AND_ORGANIZATION ( #72, #25 ) ;
#110 = CARTESIAN_POINT ( 'NONE',  ( 1.326762908760390423E-13, 8.998558695971058066E-33, 38.00000000000000000 ) ) ;
#111 = CARTESIAN_POINT ( 'NONE',  ( -2.137915148223600737E-31, 1.499999999999994005, -6.123232349659292875E-17 ) ) ;
#112 = FACE_OUTER_BOUND ( 'NONE', #107, .T. ) ;
#113 = MANIFOLD_SOLID_BREP ( 'Corps-Déplacer/Copier1[1]', #44 ) ;
#114 = LOCAL_TIME ( 10, 33, 19.00000000000000000, #115 ) ;
#115 = COORDINATED_UNIVERSAL_TIME_OFFSET ( 1, 0, .AHEAD. ) ;
#116 = APPLICATION_CONTEXT ( 'configuration controlled 3d designs of mechanical parts and assemblies' ) ;
#117 = LOCAL_TIME ( 10, 33, 19.00000000000000000, #42 ) ;
#118 = ADVANCED_FACE ( 'NONE', ( #28 ), #53, .T. ) ;
#119 = AXIS2_PLACEMENT_3D ( 'NONE', #162, #94, #90 ) ;
#120 = CARTESIAN_POINT ( 'NONE',  ( 0.0000000000000000000, 0.0000000000000000000, 0.0000000000000000000 ) ) ;
#121 = DATE_AND_TIME ( #176, #114 ) ;
#122 = DIRECTION ( 'NONE',  ( 0.0000000000000000000, 1.000000000000000000, 0.0000000000000000000 ) ) ;
#123 = DATE_TIME_ROLE ( 'classification_date' ) ;
#124 = VERTEX_POINT ( 'NONE', #111 ) ;
#125 = ORIENTED_EDGE ( 'NONE', *, *, #17, .T. ) ;
#126 = CYLINDRICAL_SURFACE ( 'NONE', #7, 1.499999999999996225 ) ;
#127 = CIRCLE ( 'NONE', #144, 1.199999999999997291 ) ;
#128 = CONICAL_SURFACE ( 'NONE', #89, 1.199999999999997291, 0.7853981633974457255 ) ;
#129 = COORDINATED_UNIVERSAL_TIME_OFFSET ( 1, 0, .AHEAD. ) ;
#130 =( GEOMETRIC_REPRESENTATION_CONTEXT ( 3 ) GLOBAL_UNCERTAINTY_ASSIGNED_CONTEXT ( ( #5 ) ) GLOBAL_UNIT_ASSIGNED_CONTEXT ( ( #87, #187, #56 ) ) REPRESENTATION_CONTEXT ( 'NONE', 'WORKASPACE' ) );
#131 = ORIENTED_EDGE ( 'NONE', *, *, #43, .T. ) ;
#132 = ADVANCED_FACE ( 'NONE', ( #165 ), #141, .F. ) ;
#133 = ORIENTED_EDGE ( 'NONE', *, *, #157, .T. ) ;
#134 = CC_DESIGN_PERSON_AND_ORGANIZATION_ASSIGNMENT ( #78, #12, ( #190 ) ) ;
#135 = DIRECTION ( 'NONE',  ( -3.491481338843133355E-15, 1.224646799147353207E-16, -1.000000000000000000 ) ) ;
#136 = DATE_AND_TIME ( #147, #170 ) ;
#137 = DIRECTION ( 'NONE',  ( -3.491481338843133355E-15, 1.224646799147353207E-16, -1.000000000000000000 ) ) ;
#138 = APPROVAL ( #161, 'UNSPECIFIED' ) ;
#139 = DIRECTION ( 'NONE',  ( 0.0000000000000000000, 1.000000000000000000, 0.0000000000000000000 ) ) ;
#140 = ORIENTED_EDGE ( 'NONE', *, *, #74, .T. ) ;
#141 = PLANE ( 'NONE',  #83 ) ;
#142 = PRODUCT_DEFINITION_FORMATION_WITH_SPECIFIED_SOURCE ( 'ANY', '', #92, .NOT_KNOWN. ) ;
#143 = DATE_AND_TIME ( #155, #174 ) ;
#144 = AXIS2_PLACEMENT_3D ( 'NONE', #6, #193, #122 ) ;
#145 = ADVANCED_FACE ( 'NONE', ( #146 ), #16, .F. ) ;
#146 = FACE_OUTER_BOUND ( 'NONE', #108, .T. ) ;
#147 = CALENDAR_DATE ( 2021, 8, 12 ) ;
#148 = FACE_OUTER_BOUND ( 'NONE', #84, .T. ) ;
#149 = CARTESIAN_POINT ( 'NONE',  ( 1.326762908760390423E-13, 1.199999999999992628, 38.00000000000000000 ) ) ;
#150 = DIRECTION ( 'NONE',  ( -3.491481338843133355E-15, 1.224646799147353207E-16, -1.000000000000000000 ) ) ;
#151 = DIRECTION ( 'NONE',  ( 0.0000000000000000000, 1.000000000000000000, 0.0000000000000000000 ) ) ;
#152 = PERSON_AND_ORGANIZATION ( #72, #25 ) ;
#153 = ADVANCED_FACE ( 'NONE', ( #112, #194 ), #128, .T. ) ;
#154 = APPLICATION_PROTOCOL_DEFINITION ( 'international standard', 'config_control_design', 1994, #172 ) ;
#155 = CALENDAR_DATE ( 2021, 8, 12 ) ;
#156 = CARTESIAN_POINT ( 'NONE',  ( 3.491481338843133355E-14, 1.499999999999993783, 10.00000000000000000 ) ) ;
#157 = EDGE_CURVE ( 'NONE', #18, #18, #62, .T. ) ;
#158 = CC_DESIGN_PERSON_AND_ORGANIZATION_ASSIGNMENT ( #109, #27, ( #142 ) ) ;
#159 = CYLINDRICAL_SURFACE ( 'NONE', #34, 1.499999999999994449 ) ;
#160 = EDGE_LOOP ( 'NONE', ( #140 ) ) ;
#161 = APPROVAL_STATUS ( 'not_yet_approved' ) ;
#162 = CARTESIAN_POINT ( 'NONE',  ( 3.491481338843133355E-14, 1.124819836996387458E-32, 10.00000000000000000 ) ) ;
#163 = ADVANCED_FACE ( 'NONE', ( #148, #10 ), #126, .T. ) ;
#164 = CARTESIAN_POINT ( 'NONE',  ( 1.326762908760390423E-13, -4.653657836759941941E-15, 38.00000000000000000 ) ) ;
#165 = FACE_OUTER_BOUND ( 'NONE', #20, .T. ) ;
#166 = EDGE_LOOP ( 'NONE', ( #188 ) ) ;
#167 = APPROVAL_DATE_TIME ( #143, #52 ) ;
#168 = MANIFOLD_SOLID_BREP ( 'Corps-Déplacer/Copier1[2]', #11 ) ;
#169 = CC_DESIGN_DATE_AND_TIME_ASSIGNMENT ( #61, #123, ( #190 ) ) ;
#170 = LOCAL_TIME ( 10, 33, 19.00000000000000000, #9 ) ;
#171 = CC_DESIGN_PERSON_AND_ORGANIZATION_ASSIGNMENT ( #91, #29, ( #142 ) ) ;
#172 = APPLICATION_CONTEXT ( 'configuration controlled 3d designs of mechanical parts and assemblies' ) ;
#173 = CIRCLE ( 'NONE', #202, 1.499999999999995115 ) ;
#174 = LOCAL_TIME ( 10, 33, 19.00000000000000000, #105 ) ;
#175 = DESIGN_CONTEXT ( 'detailed design', #172, 'design' ) ;
#176 = CALENDAR_DATE ( 2021, 8, 12 ) ;
#177 = ADVANCED_FACE ( 'NONE', ( #15 ), #76, .F. ) ;
#178 = CARTESIAN_POINT ( 'NONE',  ( -4.275831158534505967E-31, 1.499759681868677609E-32, -1.224646716843475728E-16 ) ) ;
#179 = SHAPE_DEFINITION_REPRESENTATION ( #21, #183 ) ;
#180 = DIRECTION ( 'NONE',  ( 0.0000000000000000000, 1.000000000000000000, 0.0000000000000000000 ) ) ;
#181 = CIRCLE ( 'NONE', #97, 1.499999999999994005 ) ;
#182 = DIRECTION ( 'NONE',  ( -3.491481338843133355E-15, 1.224646799147353207E-16, -1.000000000000000000 ) ) ;
#183 = ADVANCED_BREP_SHAPE_REPRESENTATION ( '372642', ( #113, #168, #35 ), #130 ) ;
#184 = PRODUCT_DEFINITION ( 'UNKNOWN', '', #142, #175 ) ;
#185 = VERTEX_POINT ( 'NONE', #156 ) ;
#186 = EDGE_LOOP ( 'NONE', ( #101 ) ) ;
#187 =( NAMED_UNIT ( * ) PLANE_ANGLE_UNIT ( ) SI_UNIT ( $, .RADIAN. ) );
#188 = ORIENTED_EDGE ( 'NONE', *, *, #24, .T. ) ;
#189 = CALENDAR_DATE ( 2021, 8, 12 ) ;
#190 = SECURITY_CLASSIFICATION ( '', '', #48 ) ;
#191 = DIRECTION ( 'NONE',  ( 4.275831445896957731E-31, 1.000000000000000000, 1.224646799147352961E-16 ) ) ;
#192 = MECHANICAL_CONTEXT ( 'NONE', #116, 'mechanical' ) ;
#193 = DIRECTION ( 'NONE',  ( -3.491481338843133355E-15, 1.224646799147353207E-16, -1.000000000000000000 ) ) ;
#194 = FACE_BOUND ( 'NONE', #166, .T. ) ;
#195 = DIRECTION ( 'NONE',  ( 3.491481338843133355E-15, -1.224646799147353207E-16, 1.000000000000000000 ) ) ;
#196 = DIRECTION ( 'NONE',  ( -3.491481338843133355E-15, 1.224646799147353207E-16, -1.000000000000000000 ) ) ;
#197 = DIRECTION ( 'NONE',  ( 4.275831445896958607E-31, 1.000000000000000000, 1.224646799147353207E-16 ) ) ;
#198 = CARTESIAN_POINT ( 'NONE',  ( 1.316288464743861212E-13, -4.616918432785521081E-15, 37.69999999999999574 ) ) ;
#199 = CC_DESIGN_PERSON_AND_ORGANIZATION_ASSIGNMENT ( #36, #69, ( #184 ) ) ;
#200 = APPROVAL_STATUS ( 'not_yet_approved' ) ;
#201 = CARTESIAN_POINT ( 'NONE',  ( 0.0000000000000000000, 0.0000000000000000000, 0.0000000000000000000 ) ) ;
#202 = AXIS2_PLACEMENT_3D ( 'NONE', #82, #196, #139 ) ;
#203 = CC_DESIGN_APPROVAL ( #37, ( #142 ) ) ;
ENDSEC;
END-ISO-10303-21;
