ISO-10303-21;
HEADER;
FILE_DESCRIPTION (( 'STEP AP203' ),
    '1' );
FILE_NAME ('372641.step',
    '2021-12-08T09:33:19',
    ( '' ),
    ( '' ),
    'SwSTEP 2.0',
    'SolidWorks 2019',
    '' );
FILE_SCHEMA (( 'CONFIG_CONTROL_DESIGN' ));
ENDSEC;

DATA;
#1 = DIRECTION ( 'NONE',  ( 3.491481338843133355E-15, -1.224646799147353207E-16, 1.000000000000000000 ) ) ;
#2 = DIRECTION ( 'NONE',  ( 3.491481338843133355E-15, -1.224646799147353207E-16, 1.000000000000000000 ) ) ;
#3 = CIRCLE ( 'NONE', #159, 1.499999999999995337 ) ;
#4 = CC_DESIGN_APPROVAL ( #15, ( #14 ) ) ;
#5 = DIRECTION ( 'NONE',  ( -3.491481338843133355E-15, 1.224646799147353207E-16, -1.000000000000000000 ) ) ;
#6 = DIRECTION ( 'NONE',  ( 0.0000000000000000000, 1.000000000000000000, 0.0000000000000000000 ) ) ;
#7 = AXIS2_PLACEMENT_3D ( 'NONE', #85, #1, #154 ) ;
#8 = VERTEX_POINT ( 'NONE', #111 ) ;
#9 = APPROVAL_PERSON_ORGANIZATION ( #68, #93, #54 ) ;
#10 = PRODUCT_RELATED_PRODUCT_CATEGORY ( 'detail', '', ( #34 ) ) ;
#11 = PERSON_AND_ORGANIZATION_ROLE ( 'creator' ) ;
#12 = DIRECTION ( 'NONE',  ( -3.491481338843133355E-15, 1.224646799147353207E-16, -1.000000000000000000 ) ) ;
#13 = DATE_AND_TIME ( #177, #61 ) ;
#14 = SECURITY_CLASSIFICATION ( '', '', #55 ) ;
#15 = APPROVAL ( #152, 'UNSPECIFIED' ) ;
#16 = PLANE ( 'NONE',  #37 ) ;
#17 = ADVANCED_FACE ( 'NONE', ( #60 ), #16, .F. ) ;
#18 = MANIFOLD_SOLID_BREP ( 'Corps-Déplacer/Copier1[2]', #86 ) ;
#19 =( GEOMETRIC_REPRESENTATION_CONTEXT ( 3 ) GLOBAL_UNCERTAINTY_ASSIGNED_CONTEXT ( ( #48 ) ) GLOBAL_UNIT_ASSIGNED_CONTEXT ( ( #23, #110, #132 ) ) REPRESENTATION_CONTEXT ( 'NONE', 'WORKASPACE' ) );
#20 = ADVANCED_FACE ( 'NONE', ( #75, #46 ), #91, .T. ) ;
#21 = CARTESIAN_POINT ( 'NONE',  ( 2.793185071074506684E-14, -9.797174393178825657E-16, 8.000000000000000000 ) ) ;
#22 = VERTEX_POINT ( 'NONE', #62 ) ;
#23 =( LENGTH_UNIT ( ) NAMED_UNIT ( * ) SI_UNIT ( .MILLI., .METRE. ) );
#24 = PERSON_AND_ORGANIZATION ( #162, #128 ) ;
#25 = APPLICATION_CONTEXT ( 'configuration controlled 3d designs of mechanical parts and assemblies' ) ;
#26 = AXIS2_PLACEMENT_3D ( 'NONE', #141, #32, #165 ) ;
#27 = CARTESIAN_POINT ( 'NONE',  ( 2.793185071074506684E-14, -9.797174393178825657E-16, 8.000000000000000000 ) ) ;
#28 = APPLICATION_CONTEXT ( 'configuration controlled 3d designs of mechanical parts and assemblies' ) ;
#29 = APPROVAL_DATE_TIME ( #99, #15 ) ;
#30 = DATE_TIME_ROLE ( 'classification_date' ) ;
#31 = DIRECTION ( 'NONE',  ( -4.275831445896958607E-31, -1.000000000000000000, -1.224646799147353207E-16 ) ) ;
#32 = DIRECTION ( 'NONE',  ( -3.491481338843133355E-15, 1.224646799147353207E-16, -1.000000000000000000 ) ) ;
#33 = ADVANCED_BREP_SHAPE_REPRESENTATION ( '372641', ( #153, #18, #146 ), #19 ) ;
#34 = PRODUCT ( '372641', '372641', '', ( #139 ) ) ;
#35 = CIRCLE ( 'NONE', #201, 1.499999999999995337 ) ;
#36 = CYLINDRICAL_SURFACE ( 'NONE', #137, 1.499999999999998890 ) ;
#37 = AXIS2_PLACEMENT_3D ( 'NONE', #124, #12, #185 ) ;
#38 = FACE_OUTER_BOUND ( 'NONE', #43, .T. ) ;
#39 = COORDINATED_UNIVERSAL_TIME_OFFSET ( 1, 0, .AHEAD. ) ;
#40 = APPROVAL_ROLE ( '' ) ;
#41 = PERSON_AND_ORGANIZATION ( #162, #128 ) ;
#42 = EDGE_LOOP ( 'NONE', ( #194 ) ) ;
#43 = EDGE_LOOP ( 'NONE', ( #107 ) ) ;
#44 = DATE_AND_TIME ( #164, #170 ) ;
#45 = DIRECTION ( 'NONE',  ( 3.491481338843133355E-15, -1.224646799147353207E-16, 1.000000000000000000 ) ) ;
#46 = FACE_BOUND ( 'NONE', #151, .T. ) ;
#47 = PLANE ( 'NONE',  #7 ) ;
#48 = UNCERTAINTY_MEASURE_WITH_UNIT (LENGTH_MEASURE( 1.000000000000000082E-05 ), #23, 'distance_accuracy_value', 'NONE');
#49 = CARTESIAN_POINT ( 'NONE',  ( 2.084414359289350550E-13, -7.311141390909697496E-15, 59.69999999999999574 ) ) ;
#50 = AXIS2_PLACEMENT_3D ( 'NONE', #49, #78, #6 ) ;
#51 = EDGE_LOOP ( 'NONE', ( #168 ) ) ;
#52 = CYLINDRICAL_SURFACE ( 'NONE', #193, 1.499999999999994671 ) ;
#53 = DATE_AND_TIME ( #135, #203 ) ;
#54 = APPROVAL_ROLE ( '' ) ;
#55 = SECURITY_CLASSIFICATION_LEVEL ( 'unclassified' ) ;
#56 = ADVANCED_FACE ( 'NONE', ( #200 ), #89, .F. ) ;
#57 = ORIENTED_EDGE ( 'NONE', *, *, #114, .T. ) ;
#58 = PLANE ( 'NONE',  #145 ) ;
#59 = ORIENTED_EDGE ( 'NONE', *, *, #187, .F. ) ;
#60 = FACE_OUTER_BOUND ( 'NONE', #156, .T. ) ;
#61 = LOCAL_TIME ( 10, 33, 19.00000000000000000, #140 ) ;
#62 = CARTESIAN_POINT ( 'NONE',  ( 2.793185071074506684E-14, 1.499999999999994227, 8.000000000000000000 ) ) ;
#63 = DESIGN_CONTEXT ( 'detailed design', #25, 'design' ) ;
#64 = CARTESIAN_POINT ( 'NONE',  ( -2.137853317482565651E-31, 1.499999999999994005, -6.123055259378593272E-17 ) ) ;
#65 = FACE_OUTER_BOUND ( 'NONE', #198, .T. ) ;
#66 = EDGE_LOOP ( 'NONE', ( #57 ) ) ;
#67 = DIRECTION ( 'NONE',  ( 4.275831445896958607E-31, 1.000000000000000000, 1.224646799147352961E-16 ) ) ;
#68 = PERSON_AND_ORGANIZATION ( #162, #128 ) ;
#69 = PERSON_AND_ORGANIZATION_ROLE ( 'creator' ) ;
#70 = DIRECTION ( 'NONE',  ( -3.491481338843133355E-15, 1.224646799147353207E-16, -1.000000000000000000 ) ) ;
#71 = CC_DESIGN_PERSON_AND_ORGANIZATION_ASSIGNMENT ( #24, #100, ( #34 ) ) ;
#72 = APPROVAL_ROLE ( '' ) ;
#73 = CARTESIAN_POINT ( 'NONE',  ( -8.551600486327977287E-31, 2.999497676432813647E-32, -2.449275724658881866E-16 ) ) ;
#74 = DIRECTION ( 'NONE',  ( 0.0000000000000000000, 1.000000000000000000, 0.0000000000000000000 ) ) ;
#75 = FACE_OUTER_BOUND ( 'NONE', #84, .T. ) ;
#76 = CC_DESIGN_PERSON_AND_ORGANIZATION_ASSIGNMENT ( #138, #195, ( #87 ) ) ;
#77 = AXIS2_PLACEMENT_3D ( 'NONE', #150, #70, #74 ) ;
#78 = DIRECTION ( 'NONE',  ( -3.491481338843133355E-15, 1.224646799147353207E-16, -1.000000000000000000 ) ) ;
#79 = PRODUCT_DEFINITION_SHAPE ( 'NONE', 'NONE',  #173 ) ;
#80 = APPROVAL_STATUS ( 'not_yet_approved' ) ;
#81 = CALENDAR_DATE ( 2021, 8, 12 ) ;
#82 = ORIENTED_EDGE ( 'NONE', *, *, #130, .T. ) ;
#83 = CC_DESIGN_PERSON_AND_ORGANIZATION_ASSIGNMENT ( #103, #105, ( #14 ) ) ;
#84 = EDGE_LOOP ( 'NONE', ( #136 ) ) ;
#85 = CARTESIAN_POINT ( 'NONE',  ( 2.793185071074506684E-14, 1.124819836996388143E-32, 8.000000000000000000 ) ) ;
#86 = CLOSED_SHELL ( 'NONE', ( #56, #180, #88 ) ) ;
#87 = PRODUCT_DEFINITION_FORMATION_WITH_SPECIFIED_SOURCE ( 'ANY', '', #34, .NOT_KNOWN. ) ;
#88 = ADVANCED_FACE ( 'NONE', ( #126 ), #58, .T. ) ;
#89 = PLANE ( 'NONE',  #112 ) ;
#90 = ORIENTED_EDGE ( 'NONE', *, *, #130, .F. ) ;
#91 = CONICAL_SURFACE ( 'NONE', #26, 1.200000000000002842, 0.7853981633974450594 ) ;
#92 = CIRCLE ( 'NONE', #50, 1.500000000000002665 ) ;
#93 = APPROVAL ( #120, 'UNSPECIFIED' ) ;
#94 = DIRECTION ( 'NONE',  ( 4.275831445896958607E-31, 1.000000000000000000, 1.224646799147353454E-16 ) ) ;
#95 = CC_DESIGN_DATE_AND_TIME_ASSIGNMENT ( #13, #116, ( #173 ) ) ;
#96 = ADVANCED_FACE ( 'NONE', ( #106 ), #47, .F. ) ;
#97 = VERTEX_POINT ( 'NONE', #64 ) ;
#98 = CARTESIAN_POINT ( 'NONE',  ( 0.0000000000000000000, 0.0000000000000000000, 0.0000000000000000000 ) ) ;
#99 = DATE_AND_TIME ( #81, #166 ) ;
#100 = PERSON_AND_ORGANIZATION_ROLE ( 'design_owner' ) ;
#101 = APPROVAL_DATE_TIME ( #53, #93 ) ;
#102 = CIRCLE ( 'NONE', #77, 1.200000000000002842 ) ;
#103 = PERSON_AND_ORGANIZATION ( #162, #128 ) ;
#104 = EDGE_LOOP ( 'NONE', ( #59 ) ) ;
#105 = PERSON_AND_ORGANIZATION_ROLE ( 'classification_officer' ) ;
#106 = FACE_OUTER_BOUND ( 'NONE', #51, .T. ) ;
#107 = ORIENTED_EDGE ( 'NONE', *, *, #114, .F. ) ;
#108 = CLOSED_SHELL ( 'NONE', ( #96, #178, #20, #17 ) ) ;
#109 = CC_DESIGN_APPROVAL ( #93, ( #173 ) ) ;
#110 =( NAMED_UNIT ( * ) PLANE_ANGLE_UNIT ( ) SI_UNIT ( $, .RADIAN. ) );
#111 = CARTESIAN_POINT ( 'NONE',  ( 2.094888803305880013E-13, 1.199999999999995515, 60.00000000000000000 ) ) ;
#112 = AXIS2_PLACEMENT_3D ( 'NONE', #144, #2, #188 ) ;
#113 = VERTEX_POINT ( 'NONE', #129 ) ;
#114 = EDGE_CURVE ( 'NONE', #97, #97, #122, .T. ) ;
#115 = CC_DESIGN_PERSON_AND_ORGANIZATION_ASSIGNMENT ( #118, #11, ( #173 ) ) ;
#116 = DATE_TIME_ROLE ( 'creation_date' ) ;
#117 = APPROVAL_PERSON_ORGANIZATION ( #41, #15, #72 ) ;
#118 = PERSON_AND_ORGANIZATION ( #162, #128 ) ;
#119 = COORDINATED_UNIVERSAL_TIME_OFFSET ( 1, 0, .AHEAD. ) ;
#120 = APPROVAL_STATUS ( 'not_yet_approved' ) ;
#121 = EDGE_CURVE ( 'NONE', #161, #161, #35, .T. ) ;
#122 = CIRCLE ( 'NONE', #169, 1.499999999999994005 ) ;
#123 = PERSON_AND_ORGANIZATION ( #162, #128 ) ;
#124 = CARTESIAN_POINT ( 'NONE',  ( 2.094888803305880013E-13, 8.998558695971058066E-33, 60.00000000000000000 ) ) ;
#125 = DIRECTION ( 'NONE',  ( -3.491481338843133355E-15, 1.224646799147353207E-16, -1.000000000000000000 ) ) ;
#126 = FACE_OUTER_BOUND ( 'NONE', #104, .T. ) ;
#127 = CC_DESIGN_SECURITY_CLASSIFICATION ( #14, ( #87 ) ) ;
#128 = ORGANIZATION ( 'UNSPECIFIED', 'UNSPECIFIED', '' ) ;
#129 = CARTESIAN_POINT ( 'NONE',  ( 2.084414359289350550E-13, 1.499999999999995337, 59.69999999999999574 ) ) ;
#130 = EDGE_CURVE ( 'NONE', #8, #8, #102, .T. ) ;
#131 = LOCAL_TIME ( 10, 33, 19.00000000000000000, #119 ) ;
#132 =( NAMED_UNIT ( * ) SI_UNIT ( $, .STERADIAN. ) SOLID_ANGLE_UNIT ( ) );
#133 = APPROVAL ( #80, 'UNSPECIFIED' ) ;
#134 = DIRECTION ( 'NONE',  ( 0.0000000000000000000, 1.000000000000000000, 0.0000000000000000000 ) ) ;
#135 = CALENDAR_DATE ( 2021, 8, 12 ) ;
#136 = ORIENTED_EDGE ( 'NONE', *, *, #202, .F. ) ;
#137 = AXIS2_PLACEMENT_3D ( 'NONE', #174, #5, #94 ) ;
#138 = PERSON_AND_ORGANIZATION ( #162, #128 ) ;
#139 = MECHANICAL_CONTEXT ( 'NONE', #28, 'mechanical' ) ;
#140 = COORDINATED_UNIVERSAL_TIME_OFFSET ( 1, 0, .AHEAD. ) ;
#141 = CARTESIAN_POINT ( 'NONE',  ( 2.094888803305880013E-13, -7.347880794884118356E-15, 60.00000000000000000 ) ) ;
#142 = DIRECTION ( 'NONE',  ( 4.275831445896958607E-31, 1.000000000000000000, 1.224646799147353207E-16 ) ) ;
#143 = FACE_OUTER_BOUND ( 'NONE', #42, .T. ) ;
#144 = CARTESIAN_POINT ( 'NONE',  ( -4.275800243163988643E-31, 1.499748838216406824E-32, -1.224637862329440933E-16 ) ) ;
#145 = AXIS2_PLACEMENT_3D ( 'NONE', #183, #45, #31 ) ;
#146 = AXIS2_PLACEMENT_3D ( 'NONE', #148, #157, #172 ) ;
#147 = APPLICATION_PROTOCOL_DEFINITION ( 'international standard', 'config_control_design', 1994, #28 ) ;
#148 = CARTESIAN_POINT ( 'NONE',  ( 0.0000000000000000000, 0.0000000000000000000, 0.0000000000000000000 ) ) ;
#149 = CARTESIAN_POINT ( 'NONE',  ( 2.793185071074506684E-14, 1.499999999999994227, 8.000000000000000000 ) ) ;
#150 = CARTESIAN_POINT ( 'NONE',  ( 2.094888803305880013E-13, -7.347880794884118356E-15, 60.00000000000000000 ) ) ;
#151 = EDGE_LOOP ( 'NONE', ( #82 ) ) ;
#152 = APPROVAL_STATUS ( 'not_yet_approved' ) ;
#153 = MANIFOLD_SOLID_BREP ( 'Corps-Déplacer/Copier1[1]', #108 ) ;
#154 = DIRECTION ( 'NONE',  ( -4.275831445896958607E-31, -1.000000000000000000, -1.224646799147353207E-16 ) ) ;
#155 = DIRECTION ( 'NONE',  ( -3.491481338843133355E-15, 1.224646799147353207E-16, -1.000000000000000000 ) ) ;
#156 = EDGE_LOOP ( 'NONE', ( #90 ) ) ;
#157 = DIRECTION ( 'NONE',  ( 0.0000000000000000000, 0.0000000000000000000, 1.000000000000000000 ) ) ;
#158 = DIRECTION ( 'NONE',  ( -3.491481338843133355E-15, 1.224646799147353207E-16, -1.000000000000000000 ) ) ;
#159 = AXIS2_PLACEMENT_3D ( 'NONE', #21, #189, #134 ) ;
#160 = FACE_OUTER_BOUND ( 'NONE', #192, .T. ) ;
#161 = VERTEX_POINT ( 'NONE', #149 ) ;
#162 = PERSON ( 'UNSPECIFIED', 'UNSPECIFIED', 'UNSPECIFIED', ('UNSPECIFIED'), ('UNSPECIFIED'), ('UNSPECIFIED') ) ;
#163 = SHAPE_DEFINITION_REPRESENTATION ( #79, #33 ) ;
#164 = CALENDAR_DATE ( 2021, 8, 12 ) ;
#165 = DIRECTION ( 'NONE',  ( 0.0000000000000000000, 1.000000000000000000, 0.0000000000000000000 ) ) ;
#166 = LOCAL_TIME ( 10, 33, 19.00000000000000000, #39 ) ;
#167 = CALENDAR_DATE ( 2021, 8, 12 ) ;
#168 = ORIENTED_EDGE ( 'NONE', *, *, #121, .T. ) ;
#169 = AXIS2_PLACEMENT_3D ( 'NONE', #73, #155, #142 ) ;
#170 = LOCAL_TIME ( 10, 33, 19.00000000000000000, #199 ) ;
#171 = CC_DESIGN_DATE_AND_TIME_ASSIGNMENT ( #179, #30, ( #14 ) ) ;
#172 = DIRECTION ( 'NONE',  ( 1.000000000000000000, 0.0000000000000000000, 0.0000000000000000000 ) ) ;
#173 = PRODUCT_DEFINITION ( 'UNKNOWN', '', #87, #63 ) ;
#174 = CARTESIAN_POINT ( 'NONE',  ( 0.0000000000000000000, 0.0000000000000000000, 0.0000000000000000000 ) ) ;
#175 = APPROVAL_DATE_TIME ( #44, #133 ) ;
#176 = CC_DESIGN_PERSON_AND_ORGANIZATION_ASSIGNMENT ( #123, #69, ( #87 ) ) ;
#177 = CALENDAR_DATE ( 2021, 8, 12 ) ;
#178 = ADVANCED_FACE ( 'NONE', ( #143, #160 ), #36, .T. ) ;
#179 = DATE_AND_TIME ( #167, #131 ) ;
#180 = ADVANCED_FACE ( 'NONE', ( #38, #65 ), #52, .T. ) ;
#181 = PERSON_AND_ORGANIZATION ( #162, #128 ) ;
#182 = APPLICATION_PROTOCOL_DEFINITION ( 'international standard', 'config_control_design', 1994, #25 ) ;
#183 = CARTESIAN_POINT ( 'NONE',  ( 2.793185071074506684E-14, 1.124819836996388143E-32, 8.000000000000000000 ) ) ;
#184 = DIRECTION ( 'NONE',  ( 0.0000000000000000000, 1.000000000000000000, 0.0000000000000000000 ) ) ;
#185 = DIRECTION ( 'NONE',  ( 4.275831445896958607E-31, 1.000000000000000000, 1.224646799147353207E-16 ) ) ;
#186 = APPROVAL_PERSON_ORGANIZATION ( #181, #133, #40 ) ;
#187 = EDGE_CURVE ( 'NONE', #22, #22, #3, .T. ) ;
#188 = DIRECTION ( 'NONE',  ( -4.275831445896958607E-31, -1.000000000000000000, -1.224646799147353207E-16 ) ) ;
#189 = DIRECTION ( 'NONE',  ( -3.491481338843133355E-15, 1.224646799147353207E-16, -1.000000000000000000 ) ) ;
#190 = CC_DESIGN_APPROVAL ( #133, ( #87 ) ) ;
#191 = ORIENTED_EDGE ( 'NONE', *, *, #202, .T. ) ;
#192 = EDGE_LOOP ( 'NONE', ( #191 ) ) ;
#193 = AXIS2_PLACEMENT_3D ( 'NONE', #98, #158, #67 ) ;
#194 = ORIENTED_EDGE ( 'NONE', *, *, #121, .F. ) ;
#195 = PERSON_AND_ORGANIZATION_ROLE ( 'design_supplier' ) ;
#196 = ORIENTED_EDGE ( 'NONE', *, *, #187, .T. ) ;
#197 = COORDINATED_UNIVERSAL_TIME_OFFSET ( 1, 0, .AHEAD. ) ;
#198 = EDGE_LOOP ( 'NONE', ( #196 ) ) ;
#199 = COORDINATED_UNIVERSAL_TIME_OFFSET ( 1, 0, .AHEAD. ) ;
#200 = FACE_OUTER_BOUND ( 'NONE', #66, .T. ) ;
#201 = AXIS2_PLACEMENT_3D ( 'NONE', #27, #125, #184 ) ;
#202 = EDGE_CURVE ( 'NONE', #113, #113, #92, .T. ) ;
#203 = LOCAL_TIME ( 10, 33, 19.00000000000000000, #197 ) ;
ENDSEC;
END-ISO-10303-21;
