ISO-10303-21;
HEADER;
FILE_DESCRIPTION (( 'STEP AP203' ),
    '1' );
FILE_NAME ('372640.step',
    '2021-12-08T09:33:18',
    ( '' ),
    ( '' ),
    'SwSTEP 2.0',
    'SolidWorks 2019',
    '' );
FILE_SCHEMA (( 'CONFIG_CONTROL_DESIGN' ));
ENDSEC;

DATA;
#1 = DIRECTION ( 'NONE',  ( 0.0000000000000000000, -1.000000000000000000, 0.0000000000000000000 ) ) ;
#2 = DIRECTION ( 'NONE',  ( -3.491481338843133355E-15, 1.276467311168695266E-16, -1.000000000000000000 ) ) ;
#3 = CIRCLE ( 'NONE', #25, 1.499999999999998890 ) ;
#4 = ADVANCED_FACE ( 'NONE', ( #97, #211 ), #102, .T. ) ;
#5 = DESIGN_CONTEXT ( 'detailed design', #62, 'design' ) ;
#6 = CARTESIAN_POINT ( 'NONE',  ( 2.793185071074506684E-14, 1.124819836996388143E-32, 8.000000000000000000 ) ) ;
#7 = VERTEX_POINT ( 'NONE', #176 ) ;
#8 = EDGE_LOOP ( 'NONE', ( #76 ) ) ;
#9 = CIRCLE ( 'NONE', #160, 1.249999999999999112 ) ;
#10 = CARTESIAN_POINT ( 'NONE',  ( 6.187584230480649131E-31, -4.607014666082633066E-32, 1.772194558694345397E-16 ) ) ;
#11 = PERSON_AND_ORGANIZATION ( #147, #22 ) ;
#12 = ORIENTED_EDGE ( 'NONE', *, *, #20, .T. ) ;
#13 = MANIFOLD_SOLID_BREP ( 'Corps-Déplacer/Copier1[2]', #128 ) ;
#14 = DIRECTION ( 'NONE',  ( 1.000000000000000000, 0.0000000000000000000, 0.0000000000000000000 ) ) ;
#15 = CARTESIAN_POINT ( 'NONE',  ( 2.094888803305880013E-13, -7.347880794884118356E-15, 60.00000000000000000 ) ) ;
#16 = ADVANCED_BREP_SHAPE_REPRESENTATION ( '372640', ( #85, #13, #31 ), #88 ) ;
#17 = PERSON_AND_ORGANIZATION ( #147, #22 ) ;
#18 = FACE_OUTER_BOUND ( 'NONE', #8, .T. ) ;
#19 = ADVANCED_FACE ( 'NONE', ( #138 ), #222, .T. ) ;
#20 = EDGE_CURVE ( 'NONE', #73, #73, #9, .T. ) ;
#21 = PRODUCT_DEFINITION_SHAPE ( 'NONE', 'NONE',  #192 ) ;
#22 = ORGANIZATION ( 'UNSPECIFIED', 'UNSPECIFIED', '' ) ;
#23 = VERTEX_POINT ( 'NONE', #214 ) ;
#24 = APPROVAL_PERSON_ORGANIZATION ( #11, #95, #44 ) ;
#25 = AXIS2_PLACEMENT_3D ( 'NONE', #120, #2, #1 ) ;
#26 = FACE_OUTER_BOUND ( 'NONE', #180, .T. ) ;
#27 = APPLICATION_PROTOCOL_DEFINITION ( 'international standard', 'config_control_design', 1994, #113 ) ;
#28 = PLANE ( 'NONE',  #110 ) ;
#29 = PLANE ( 'NONE',  #103 ) ;
#30 = PERSON_AND_ORGANIZATION ( #147, #22 ) ;
#31 = AXIS2_PLACEMENT_3D ( 'NONE', #90, #217, #14 ) ;
#32 = CYLINDRICAL_SURFACE ( 'NONE', #203, 1.499999999999998890 ) ;
#33 = DATE_TIME_ROLE ( 'creation_date' ) ;
#34 = CALENDAR_DATE ( 2021, 8, 12 ) ;
#35 = DIRECTION ( 'NONE',  ( -3.491481338843133355E-15, 1.224646799147353207E-16, -1.000000000000000000 ) ) ;
#36 = DIRECTION ( 'NONE',  ( -4.275831445896958607E-31, -1.000000000000000000, -1.224646799147353207E-16 ) ) ;
#37 = CC_DESIGN_APPROVAL ( #95, ( #192 ) ) ;
#38 = CIRCLE ( 'NONE', #191, 1.500000000000002665 ) ;
#39 = CARTESIAN_POINT ( 'NONE',  ( 3.118944714830533520E-14, -1.500000000000000000, 8.933012701892211638 ) ) ;
#40 = PRODUCT ( '372640', '372640', '', ( #153 ) ) ;
#41 = DIRECTION ( 'NONE',  ( 3.491481338843133355E-15, -1.224646799147353207E-16, 1.000000000000000000 ) ) ;
#42 = APPROVAL_STATUS ( 'not_yet_approved' ) ;
#43 = SHAPE_DEFINITION_REPRESENTATION ( #21, #16 ) ;
#44 = APPROVAL_ROLE ( '' ) ;
#45 = EDGE_LOOP ( 'NONE', ( #206 ) ) ;
#46 = APPROVAL_STATUS ( 'not_yet_approved' ) ;
#47 = CARTESIAN_POINT ( 'NONE',  ( 2.793185071074506684E-14, 1.124819836996388143E-32, 8.000000000000000000 ) ) ;
#48 = PERSON_AND_ORGANIZATION ( #147, #22 ) ;
#49 = CARTESIAN_POINT ( 'NONE',  ( 9.308377946195076208E-14, -3.403094278676149666E-15, 26.66025403784432513 ) ) ;
#50 = DIRECTION ( 'NONE',  ( 3.491481338843133355E-15, -1.276467311168695266E-16, 1.000000000000000000 ) ) ;
#51 = LOCAL_TIME ( 10, 33, 18.00000000000000000, #200 ) ;
#52 = CC_DESIGN_DATE_AND_TIME_ASSIGNMENT ( #204, #33, ( #192 ) ) ;
#53 = SECURITY_CLASSIFICATION ( '', '', #188 ) ;
#54 = CARTESIAN_POINT ( 'NONE',  ( 2.084414359289350550E-13, -7.311141390909697496E-15, 59.69999999999999574 ) ) ;
#55 = DIRECTION ( 'NONE',  ( -3.491481338843133355E-15, 1.224646799147353207E-16, -1.000000000000000000 ) ) ;
#56 = CIRCLE ( 'NONE', #77, 1.249999999999999112 ) ;
#57 = FACE_OUTER_BOUND ( 'NONE', #135, .T. ) ;
#58 =( LENGTH_UNIT ( ) NAMED_UNIT ( * ) SI_UNIT ( .MILLI., .METRE. ) );
#59 = DATE_TIME_ROLE ( 'classification_date' ) ;
#60 = AXIS2_PLACEMENT_3D ( 'NONE', #118, #86, #65 ) ;
#61 = COORDINATED_UNIVERSAL_TIME_OFFSET ( 1, 0, .AHEAD. ) ;
#62 = APPLICATION_CONTEXT ( 'configuration controlled 3d designs of mechanical parts and assemblies' ) ;
#63 = EDGE_CURVE ( 'NONE', #108, #108, #38, .T. ) ;
#64 = CARTESIAN_POINT ( 'NONE',  ( 2.793185071074506684E-14, -1.021173848934956212E-15, 8.000000000000000000 ) ) ;
#65 = DIRECTION ( 'NONE',  ( 0.0000000000000000000, 1.000000000000000000, 0.0000000000000000000 ) ) ;
#66 = DIRECTION ( 'NONE',  ( 3.491481338843133355E-15, -1.224646799147353207E-16, 1.000000000000000000 ) ) ;
#67 = EDGE_LOOP ( 'NONE', ( #166 ) ) ;
#68 = APPROVAL_PERSON_ORGANIZATION ( #30, #187, #111 ) ;
#69 = CARTESIAN_POINT ( 'NONE',  ( 2.084414359289350550E-13, 1.499999999999995337, 59.69999999999999574 ) ) ;
#70 = DIRECTION ( 'NONE',  ( 3.491481338843133355E-15, -1.276467311168695266E-16, 1.000000000000000000 ) ) ;
#71 = DIRECTION ( 'NONE',  ( -4.456761796588770537E-31, -1.000000000000000000, -1.276467311168695019E-16 ) ) ;
#72 = ORIENTED_EDGE ( 'NONE', *, *, #198, .T. ) ;
#73 = VERTEX_POINT ( 'NONE', #148 ) ;
#74 = DIRECTION ( 'NONE',  ( 3.491481338843133355E-15, -1.276467311168695266E-16, 1.000000000000000000 ) ) ;
#75 = DATE_AND_TIME ( #181, #51 ) ;
#76 = ORIENTED_EDGE ( 'NONE', *, *, #201, .F. ) ;
#77 = AXIS2_PLACEMENT_3D ( 'NONE', #143, #70, #164 ) ;
#78 = PERSON_AND_ORGANIZATION_ROLE ( 'creator' ) ;
#79 = ORIENTED_EDGE ( 'NONE', *, *, #198, .F. ) ;
#80 = DIRECTION ( 'NONE',  ( 3.491481338843133355E-15, -1.224646799147353207E-16, 1.000000000000000000 ) ) ;
#81 = CC_DESIGN_PERSON_AND_ORGANIZATION_ASSIGNMENT ( #184, #183, ( #87 ) ) ;
#82 = CALENDAR_DATE ( 2021, 8, 12 ) ;
#83 = DIRECTION ( 'NONE',  ( 0.0000000000000000000, -1.000000000000000000, 0.0000000000000000000 ) ) ;
#84 = FACE_OUTER_BOUND ( 'NONE', #165, .T. ) ;
#85 = MANIFOLD_SOLID_BREP ( 'Corps-Déplacer/Copier1[1]', #223 ) ;
#86 = DIRECTION ( 'NONE',  ( -3.491481338843133355E-15, 1.224646799147353207E-16, -1.000000000000000000 ) ) ;
#87 = PRODUCT_DEFINITION_FORMATION_WITH_SPECIFIED_SOURCE ( 'ANY', '', #40, .NOT_KNOWN. ) ;
#88 =( GEOMETRIC_REPRESENTATION_CONTEXT ( 3 ) GLOBAL_UNCERTAINTY_ASSIGNED_CONTEXT ( ( #127 ) ) GLOBAL_UNIT_ASSIGNED_CONTEXT ( ( #58, #179, #195 ) ) REPRESENTATION_CONTEXT ( 'NONE', 'WORKASPACE' ) );
#89 = EDGE_LOOP ( 'NONE', ( #112 ) ) ;
#90 = CARTESIAN_POINT ( 'NONE',  ( 0.0000000000000000000, 0.0000000000000000000, 0.0000000000000000000 ) ) ;
#91 = EDGE_LOOP ( 'NONE', ( #205 ) ) ;
#92 = LOCAL_TIME ( 10, 33, 18.00000000000000000, #61 ) ;
#93 = CALENDAR_DATE ( 2021, 8, 12 ) ;
#94 = DIRECTION ( 'NONE',  ( -3.491481338843133355E-15, 1.224646799147353207E-16, -1.000000000000000000 ) ) ;
#95 = APPROVAL ( #46, 'UNSPECIFIED' ) ;
#96 = DIRECTION ( 'NONE',  ( 4.275831445896958607E-31, 1.000000000000000000, 1.224646799147353454E-16 ) ) ;
#97 = FACE_BOUND ( 'NONE', #130, .T. ) ;
#98 = AXIS2_PLACEMENT_3D ( 'NONE', #47, #80, #36 ) ;
#99 = EDGE_CURVE ( 'NONE', #178, #178, #125, .T. ) ;
#100 = FACE_OUTER_BOUND ( 'NONE', #162, .T. ) ;
#101 = CARTESIAN_POINT ( 'NONE',  ( 0.0000000000000000000, 0.0000000000000000000, 0.0000000000000000000 ) ) ;
#102 = CONICAL_SURFACE ( 'NONE', #137, 6.249999999999998224, 0.2617993877991501850 ) ;
#103 = AXIS2_PLACEMENT_3D ( 'NONE', #6, #41, #105 ) ;
#104 = PRODUCT_RELATED_PRODUCT_CATEGORY ( 'detail', '', ( #40 ) ) ;
#105 = DIRECTION ( 'NONE',  ( -4.275831445896958607E-31, -1.000000000000000000, -1.224646799147353207E-16 ) ) ;
#106 = CC_DESIGN_PERSON_AND_ORGANIZATION_ASSIGNMENT ( #186, #154, ( #40 ) ) ;
#107 = AXIS2_PLACEMENT_3D ( 'NONE', #173, #50, #71 ) ;
#108 = VERTEX_POINT ( 'NONE', #69 ) ;
#109 = ORIENTED_EDGE ( 'NONE', *, *, #99, .F. ) ;
#110 = AXIS2_PLACEMENT_3D ( 'NONE', #212, #55, #163 ) ;
#111 = APPROVAL_ROLE ( '' ) ;
#112 = ORIENTED_EDGE ( 'NONE', *, *, #129, .F. ) ;
#113 = APPLICATION_CONTEXT ( 'configuration controlled 3d designs of mechanical parts and assemblies' ) ;
#114 = APPROVAL_DATE_TIME ( #149, #95 ) ;
#115 = PERSON_AND_ORGANIZATION_ROLE ( 'creator' ) ;
#116 = CC_DESIGN_APPROVAL ( #187, ( #53 ) ) ;
#117 = APPROVAL_DATE_TIME ( #134, #215 ) ;
#118 = CARTESIAN_POINT ( 'NONE',  ( 2.094888803305880013E-13, -7.347880794884118356E-15, 60.00000000000000000 ) ) ;
#119 = CALENDAR_DATE ( 2021, 8, 12 ) ;
#120 = CARTESIAN_POINT ( 'NONE',  ( 3.118944714830533520E-14, -1.140269870422015451E-15, 8.933012701892211638 ) ) ;
#121 = FACE_BOUND ( 'NONE', #67, .T. ) ;
#122 = LOCAL_TIME ( 10, 33, 18.00000000000000000, #133 ) ;
#123 = CC_DESIGN_APPROVAL ( #215, ( #87 ) ) ;
#124 = CC_DESIGN_PERSON_AND_ORGANIZATION_ASSIGNMENT ( #219, #78, ( #192 ) ) ;
#125 = CIRCLE ( 'NONE', #60, 1.200000000000002842 ) ;
#126 = CARTESIAN_POINT ( 'NONE',  ( 2.094888803305880013E-13, 1.199999999999995515, 60.00000000000000000 ) ) ;
#127 = UNCERTAINTY_MEASURE_WITH_UNIT (LENGTH_MEASURE( 1.000000000000000082E-05 ), #58, 'distance_accuracy_value', 'NONE');
#128 = CLOSED_SHELL ( 'NONE', ( #19, #161, #144 ) ) ;
#129 = EDGE_CURVE ( 'NONE', #142, #142, #3, .T. ) ;
#130 = EDGE_LOOP ( 'NONE', ( #12 ) ) ;
#131 = ADVANCED_FACE ( 'NONE', ( #84, #158 ), #32, .T. ) ;
#132 = PERSON_AND_ORGANIZATION ( #147, #22 ) ;
#133 = COORDINATED_UNIVERSAL_TIME_OFFSET ( 1, 0, .AHEAD. ) ;
#134 = DATE_AND_TIME ( #119, #190 ) ;
#135 = EDGE_LOOP ( 'NONE', ( #109 ) ) ;
#136 = APPROVAL_STATUS ( 'not_yet_approved' ) ;
#137 = AXIS2_PLACEMENT_3D ( 'NONE', #49, #220, #83 ) ;
#138 = FACE_OUTER_BOUND ( 'NONE', #150, .T. ) ;
#139 = FACE_OUTER_BOUND ( 'NONE', #45, .T. ) ;
#140 = DIRECTION ( 'NONE',  ( 3.491481338843133355E-15, -1.276467311168695266E-16, 1.000000000000000000 ) ) ;
#141 = ADVANCED_FACE ( 'NONE', ( #170, #121 ), #210, .T. ) ;
#142 = VERTEX_POINT ( 'NONE', #39 ) ;
#143 = CARTESIAN_POINT ( 'NONE',  ( 2.793185071074506684E-14, -1.021173848934956212E-15, 8.000000000000000000 ) ) ;
#144 = ADVANCED_FACE ( 'NONE', ( #18 ), #189, .F. ) ;
#145 = DIRECTION ( 'NONE',  ( -4.456761796588770537E-31, -1.000000000000000000, -1.276467311168695266E-16 ) ) ;
#146 = CC_DESIGN_PERSON_AND_ORGANIZATION_ASSIGNMENT ( #132, #168, ( #53 ) ) ;
#147 = PERSON ( 'UNSPECIFIED', 'UNSPECIFIED', 'UNSPECIFIED', ('UNSPECIFIED'), ('UNSPECIFIED'), ('UNSPECIFIED') ) ;
#148 = CARTESIAN_POINT ( 'NONE',  ( 2.793185071074506684E-14, -1.250000000000000222, 8.000000000000000000 ) ) ;
#149 = DATE_AND_TIME ( #34, #92 ) ;
#150 = EDGE_LOOP ( 'NONE', ( #72 ) ) ;
#151 = CIRCLE ( 'NONE', #208, 1.249999999999998890 ) ;
#152 = COORDINATED_UNIVERSAL_TIME_OFFSET ( 1, 0, .AHEAD. ) ;
#153 = MECHANICAL_CONTEXT ( 'NONE', #113, 'mechanical' ) ;
#154 = PERSON_AND_ORGANIZATION_ROLE ( 'design_owner' ) ;
#155 = DIRECTION ( 'NONE',  ( 0.0000000000000000000, -1.000000000000000000, 0.0000000000000000000 ) ) ;
#156 = AXIS2_PLACEMENT_3D ( 'NONE', #15, #169, #172 ) ;
#157 = CARTESIAN_POINT ( 'NONE',  ( -4.275800243163988643E-31, 1.499748838216406824E-32, -1.224637862329440933E-16 ) ) ;
#158 = FACE_OUTER_BOUND ( 'NONE', #89, .T. ) ;
#159 = ORIENTED_EDGE ( 'NONE', *, *, #129, .T. ) ;
#160 = AXIS2_PLACEMENT_3D ( 'NONE', #64, #140, #155 ) ;
#161 = ADVANCED_FACE ( 'NONE', ( #139, #100 ), #207, .T. ) ;
#162 = EDGE_LOOP ( 'NONE', ( #79 ) ) ;
#163 = DIRECTION ( 'NONE',  ( 4.275831445896958607E-31, 1.000000000000000000, 1.224646799147353207E-16 ) ) ;
#164 = DIRECTION ( 'NONE',  ( 0.0000000000000000000, -1.000000000000000000, 0.0000000000000000000 ) ) ;
#165 = EDGE_LOOP ( 'NONE', ( #196 ) ) ;
#166 = ORIENTED_EDGE ( 'NONE', *, *, #99, .T. ) ;
#167 = LOCAL_TIME ( 10, 33, 18.00000000000000000, #171 ) ;
#168 = PERSON_AND_ORGANIZATION_ROLE ( 'classification_officer' ) ;
#169 = DIRECTION ( 'NONE',  ( -3.491481338843133355E-15, 1.224646799147353207E-16, -1.000000000000000000 ) ) ;
#170 = FACE_OUTER_BOUND ( 'NONE', #91, .T. ) ;
#171 = COORDINATED_UNIVERSAL_TIME_OFFSET ( 1, 0, .AHEAD. ) ;
#172 = DIRECTION ( 'NONE',  ( 0.0000000000000000000, 1.000000000000000000, 0.0000000000000000000 ) ) ;
#173 = CARTESIAN_POINT ( 'NONE',  ( -6.413839710158237013E-31, 0.0000000000000000000, -1.836996703606440502E-16 ) ) ;
#174 = DIRECTION ( 'NONE',  ( -4.275831445896958607E-31, -1.000000000000000000, -1.224646799147353207E-16 ) ) ;
#175 = CC_DESIGN_PERSON_AND_ORGANIZATION_ASSIGNMENT ( #17, #115, ( #87 ) ) ;
#176 = CARTESIAN_POINT ( 'NONE',  ( 2.793185071074506684E-14, -1.250000000000000222, 8.000000000000000000 ) ) ;
#177 = CC_DESIGN_DATE_AND_TIME_ASSIGNMENT ( #197, #59, ( #53 ) ) ;
#178 = VERTEX_POINT ( 'NONE', #126 ) ;
#179 =( NAMED_UNIT ( * ) PLANE_ANGLE_UNIT ( ) SI_UNIT ( $, .RADIAN. ) );
#180 = EDGE_LOOP ( 'NONE', ( #218 ) ) ;
#181 = CALENDAR_DATE ( 2021, 8, 12 ) ;
#182 = EDGE_LOOP ( 'NONE', ( #159 ) ) ;
#183 = PERSON_AND_ORGANIZATION_ROLE ( 'design_supplier' ) ;
#184 = PERSON_AND_ORGANIZATION ( #147, #22 ) ;
#185 = DIRECTION ( 'NONE',  ( 0.0000000000000000000, 1.000000000000000000, 0.0000000000000000000 ) ) ;
#186 = PERSON_AND_ORGANIZATION ( #147, #22 ) ;
#187 = APPROVAL ( #42, 'UNSPECIFIED' ) ;
#188 = SECURITY_CLASSIFICATION_LEVEL ( 'unclassified' ) ;
#189 = PLANE ( 'NONE',  #216 ) ;
#190 = LOCAL_TIME ( 10, 33, 18.00000000000000000, #152 ) ;
#191 = AXIS2_PLACEMENT_3D ( 'NONE', #54, #35, #185 ) ;
#192 = PRODUCT_DEFINITION ( 'UNKNOWN', '', #87, #5 ) ;
#193 = APPROVAL_PERSON_ORGANIZATION ( #48, #215, #202 ) ;
#194 = ADVANCED_FACE ( 'NONE', ( #26 ), #29, .F. ) ;
#195 =( NAMED_UNIT ( * ) SI_UNIT ( $, .STERADIAN. ) SOLID_ANGLE_UNIT ( ) );
#196 = ORIENTED_EDGE ( 'NONE', *, *, #63, .T. ) ;
#197 = DATE_AND_TIME ( #82, #122 ) ;
#198 = EDGE_CURVE ( 'NONE', #7, #7, #56, .T. ) ;
#199 = APPROVAL_DATE_TIME ( #75, #187 ) ;
#200 = COORDINATED_UNIVERSAL_TIME_OFFSET ( 1, 0, .AHEAD. ) ;
#201 = EDGE_CURVE ( 'NONE', #23, #23, #151, .T. ) ;
#202 = APPROVAL_ROLE ( '' ) ;
#203 = AXIS2_PLACEMENT_3D ( 'NONE', #101, #94, #96 ) ;
#204 = DATE_AND_TIME ( #93, #167 ) ;
#205 = ORIENTED_EDGE ( 'NONE', *, *, #63, .F. ) ;
#206 = ORIENTED_EDGE ( 'NONE', *, *, #201, .T. ) ;
#207 = CYLINDRICAL_SURFACE ( 'NONE', #107, 1.249999999999998890 ) ;
#208 = AXIS2_PLACEMENT_3D ( 'NONE', #10, #74, #145 ) ;
#209 = ADVANCED_FACE ( 'NONE', ( #57 ), #28, .F. ) ;
#210 = CONICAL_SURFACE ( 'NONE', #156, 1.200000000000002842, 0.7853981633974450594 ) ;
#211 = FACE_OUTER_BOUND ( 'NONE', #182, .T. ) ;
#212 = CARTESIAN_POINT ( 'NONE',  ( 2.094888803305880013E-13, 8.998558695971058066E-33, 60.00000000000000000 ) ) ;
#213 = CC_DESIGN_SECURITY_CLASSIFICATION ( #53, ( #87 ) ) ;
#214 = CARTESIAN_POINT ( 'NONE',  ( 6.166319847446907764E-32, -1.249999999999998890, 1.766104197334777325E-17 ) ) ;
#215 = APPROVAL ( #136, 'UNSPECIFIED' ) ;
#216 = AXIS2_PLACEMENT_3D ( 'NONE', #157, #66, #174 ) ;
#217 = DIRECTION ( 'NONE',  ( 0.0000000000000000000, 0.0000000000000000000, 1.000000000000000000 ) ) ;
#218 = ORIENTED_EDGE ( 'NONE', *, *, #20, .F. ) ;
#219 = PERSON_AND_ORGANIZATION ( #147, #22 ) ;
#220 = DIRECTION ( 'NONE',  ( 3.491481338843133355E-15, -1.276467311168695266E-16, 1.000000000000000000 ) ) ;
#221 = APPLICATION_PROTOCOL_DEFINITION ( 'international standard', 'config_control_design', 1994, #62 ) ;
#222 = PLANE ( 'NONE',  #98 ) ;
#223 = CLOSED_SHELL ( 'NONE', ( #131, #141, #209, #4, #194 ) ) ;
ENDSEC;
END-ISO-10303-21;
