ISO-10303-21;
HEADER;
FILE_DESCRIPTION (( 'STEP AP203' ),
    '1' );
FILE_NAME ('372639.step',
    '2021-12-08T09:33:18',
    ( '' ),
    ( '' ),
    'SwSTEP 2.0',
    'SolidWorks 2019',
    '' );
FILE_SCHEMA (( 'CONFIG_CONTROL_DESIGN' ));
ENDSEC;

DATA;
#1 = DIRECTION ( 'NONE',  ( 3.491481338843133355E-15, -1.276467311168695266E-16, 1.000000000000000000 ) ) ;
#2 = DIRECTION ( 'NONE',  ( -3.491481338843133355E-15, 1.224646799147353207E-16, -1.000000000000000000 ) ) ;
#3 = CIRCLE ( 'NONE', #148, 1.249999999999999112 ) ;
#4 = CC_DESIGN_DATE_AND_TIME_ASSIGNMENT ( #54, #194, ( #34 ) ) ;
#5 = EDGE_LOOP ( 'NONE', ( #44 ) ) ;
#6 = CARTESIAN_POINT ( 'NONE',  ( 2.793185071074506684E-14, -1.250000000000000222, 8.000000000000000000 ) ) ;
#7 = EDGE_LOOP ( 'NONE', ( #75 ) ) ;
#8 = CC_DESIGN_APPROVAL ( #88, ( #34 ) ) ;
#9 = APPROVAL_STATUS ( 'not_yet_approved' ) ;
#10 = EDGE_LOOP ( 'NONE', ( #179 ) ) ;
#11 = PERSON_AND_ORGANIZATION ( #26, #102 ) ;
#12 = EDGE_LOOP ( 'NONE', ( #142 ) ) ;
#13 = EDGE_LOOP ( 'NONE', ( #90 ) ) ;
#14 = EDGE_CURVE ( 'NONE', #162, #162, #119, .T. ) ;
#15 = PERSON_AND_ORGANIZATION ( #26, #102 ) ;
#16 = DIRECTION ( 'NONE',  ( -3.491481338843133355E-15, 1.224646799147353207E-16, -1.000000000000000000 ) ) ;
#17 = PERSON_AND_ORGANIZATION ( #26, #102 ) ;
#18 = CIRCLE ( 'NONE', #76, 1.199999999999998845 ) ;
#19 = DIRECTION ( 'NONE',  ( 3.491481338843133355E-15, -1.276467311168695266E-16, 1.000000000000000000 ) ) ;
#20 = DIRECTION ( 'NONE',  ( 0.0000000000000000000, -1.000000000000000000, 0.0000000000000000000 ) ) ;
#21 = ADVANCED_FACE ( 'NONE', ( #216 ), #86, .F. ) ;
#22 = CALENDAR_DATE ( 2021, 8, 12 ) ;
#23 = DIRECTION ( 'NONE',  ( -3.491481338843133355E-15, 1.224646799147353207E-16, -1.000000000000000000 ) ) ;
#24 = CARTESIAN_POINT ( 'NONE',  ( 0.0000000000000000000, 0.0000000000000000000, 0.0000000000000000000 ) ) ;
#25 = DIRECTION ( 'NONE',  ( 4.275831445896958607E-31, 1.000000000000000000, 1.224646799147353207E-16 ) ) ;
#26 = PERSON ( 'UNSPECIFIED', 'UNSPECIFIED', 'UNSPECIFIED', ('UNSPECIFIED'), ('UNSPECIFIED'), ('UNSPECIFIED') ) ;
#27 = EDGE_LOOP ( 'NONE', ( #77 ) ) ;
#28 = CONICAL_SURFACE ( 'NONE', #153, 1.199999999999998845, 0.7853981633974450594 ) ;
#29 = PLANE ( 'NONE',  #168 ) ;
#30 = EDGE_CURVE ( 'NONE', #115, #115, #18, .T. ) ;
#31 = DIRECTION ( 'NONE',  ( -4.275831445896958607E-31, -1.000000000000000000, -1.224646799147353207E-16 ) ) ;
#32 = APPLICATION_CONTEXT ( 'configuration controlled 3d designs of mechanical parts and assemblies' ) ;
#33 = FACE_OUTER_BOUND ( 'NONE', #208, .T. ) ;
#34 = PRODUCT_DEFINITION ( 'UNKNOWN', '', #35, #145 ) ;
#35 = PRODUCT_DEFINITION_FORMATION_WITH_SPECIFIED_SOURCE ( 'ANY', '', #106, .NOT_KNOWN. ) ;
#36 = PERSON_AND_ORGANIZATION_ROLE ( 'creator' ) ;
#37 = ADVANCED_FACE ( 'NONE', ( #126 ), #89, .F. ) ;
#38 = PERSON_AND_ORGANIZATION ( #26, #102 ) ;
#39 = DIRECTION ( 'NONE',  ( 1.000000000000000000, 0.0000000000000000000, 0.0000000000000000000 ) ) ;
#40 = APPLICATION_PROTOCOL_DEFINITION ( 'international standard', 'config_control_design', 1994, #43 ) ;
#41 = FACE_OUTER_BOUND ( 'NONE', #12, .T. ) ;
#42 = LOCAL_TIME ( 10, 33, 18.00000000000000000, #217 ) ;
#43 = APPLICATION_CONTEXT ( 'configuration controlled 3d designs of mechanical parts and assemblies' ) ;
#44 = ORIENTED_EDGE ( 'NONE', *, *, #178, .F. ) ;
#45 = DIRECTION ( 'NONE',  ( 0.0000000000000000000, 1.000000000000000000, 0.0000000000000000000 ) ) ;
#46 = PLANE ( 'NONE',  #104 ) ;
#47 = CALENDAR_DATE ( 2021, 8, 12 ) ;
#48 = DIRECTION ( 'NONE',  ( 4.275831445896958607E-31, 1.000000000000000000, 1.224646799147353454E-16 ) ) ;
#49 = CC_DESIGN_APPROVAL ( #118, ( #110 ) ) ;
#50 = CARTESIAN_POINT ( 'NONE',  ( 1.326762908760390423E-13, -4.653657836759941941E-15, 38.00000000000000000 ) ) ;
#51 = AXIS2_PLACEMENT_3D ( 'NONE', #85, #155, #25 ) ;
#52 = CC_DESIGN_PERSON_AND_ORGANIZATION_ASSIGNMENT ( #15, #221, ( #35 ) ) ;
#53 = CARTESIAN_POINT ( 'NONE',  ( -6.413839710158237013E-31, 0.0000000000000000000, -1.836996703606440502E-16 ) ) ;
#54 = DATE_AND_TIME ( #22, #130 ) ;
#55 = CLOSED_SHELL ( 'NONE', ( #152, #188, #21, #73, #37 ) ) ;
#56 = DATE_AND_TIME ( #154, #80 ) ;
#57 = DIRECTION ( 'NONE',  ( 0.0000000000000000000, 1.000000000000000000, 0.0000000000000000000 ) ) ;
#58 = APPROVAL_ROLE ( '' ) ;
#59 = ORIENTED_EDGE ( 'NONE', *, *, #66, .F. ) ;
#60 = CARTESIAN_POINT ( 'NONE',  ( 6.187584230480649131E-31, -4.607014666082633066E-32, 1.772194558694345397E-16 ) ) ;
#61 = CC_DESIGN_APPROVAL ( #135, ( #35 ) ) ;
#62 = FACE_OUTER_BOUND ( 'NONE', #109, .T. ) ;
#63 = VERTEX_POINT ( 'NONE', #133 ) ;
#64 = CARTESIAN_POINT ( 'NONE',  ( 6.166319847446907764E-32, -1.249999999999998890, 1.766104197334777325E-17 ) ) ;
#65 = AXIS2_PLACEMENT_3D ( 'NONE', #166, #2, #48 ) ;
#66 = EDGE_CURVE ( 'NONE', #63, #63, #167, .T. ) ;
#67 = DIRECTION ( 'NONE',  ( 0.0000000000000000000, 0.0000000000000000000, 1.000000000000000000 ) ) ;
#68 = DATE_AND_TIME ( #84, #172 ) ;
#69 = CIRCLE ( 'NONE', #197, 1.249999999999999112 ) ;
#70 = PERSON_AND_ORGANIZATION ( #26, #102 ) ;
#71 = DIRECTION ( 'NONE',  ( -4.275831445896958607E-31, -1.000000000000000000, -1.224646799147353207E-16 ) ) ;
#72 = EDGE_LOOP ( 'NONE', ( #180 ) ) ;
#73 = ADVANCED_FACE ( 'NONE', ( #140, #41 ), #186, .T. ) ;
#74 = APPROVAL_DATE_TIME ( #93, #118 ) ;
#75 = ORIENTED_EDGE ( 'NONE', *, *, #165, .T. ) ;
#76 = AXIS2_PLACEMENT_3D ( 'NONE', #213, #214, #57 ) ;
#77 = ORIENTED_EDGE ( 'NONE', *, *, #165, .F. ) ;
#78 = DIRECTION ( 'NONE',  ( 0.0000000000000000000, -1.000000000000000000, 0.0000000000000000000 ) ) ;
#79 = CIRCLE ( 'NONE', #92, 1.249999999999998890 ) ;
#80 = LOCAL_TIME ( 10, 33, 18.00000000000000000, #176 ) ;
#81 = FACE_OUTER_BOUND ( 'NONE', #10, .T. ) ;
#82 = CYLINDRICAL_SURFACE ( 'NONE', #65, 1.499999999999996669 ) ;
#83 = DIRECTION ( 'NONE',  ( 3.491481338843133355E-15, -1.276467311168695266E-16, 1.000000000000000000 ) ) ;
#84 = CALENDAR_DATE ( 2021, 8, 12 ) ;
#85 = CARTESIAN_POINT ( 'NONE',  ( 1.326762908760390423E-13, 8.998558695971069014E-33, 38.00000000000000000 ) ) ;
#86 = PLANE ( 'NONE',  #51 ) ;
#87 = PRODUCT_DEFINITION_SHAPE ( 'NONE', 'NONE',  #34 ) ;
#88 = APPROVAL ( #9, 'UNSPECIFIED' ) ;
#89 = PLANE ( 'NONE',  #206 ) ;
#90 = ORIENTED_EDGE ( 'NONE', *, *, #30, .F. ) ;
#91 = APPROVAL_ROLE ( '' ) ;
#92 = AXIS2_PLACEMENT_3D ( 'NONE', #60, #183, #222 ) ;
#93 = DATE_AND_TIME ( #47, #117 ) ;
#94 = DIRECTION ( 'NONE',  ( 3.491481338843133355E-15, -1.224646799147353207E-16, 1.000000000000000000 ) ) ;
#95 = CYLINDRICAL_SURFACE ( 'NONE', #209, 1.249999999999998890 ) ;
#96 = CARTESIAN_POINT ( 'NONE',  ( 1.326762908760390423E-13, 1.199999999999994182, 38.00000000000000000 ) ) ;
#97 = AXIS2_PLACEMENT_3D ( 'NONE', #177, #159, #157 ) ;
#98 =( GEOMETRIC_REPRESENTATION_CONTEXT ( 3 ) GLOBAL_UNCERTAINTY_ASSIGNED_CONTEXT ( ( #202 ) ) GLOBAL_UNIT_ASSIGNED_CONTEXT ( ( #103, #122, #137 ) ) REPRESENTATION_CONTEXT ( 'NONE', 'WORKASPACE' ) );
#99 = CARTESIAN_POINT ( 'NONE',  ( 2.793185071074506684E-14, -1.250000000000000222, 8.000000000000000000 ) ) ;
#100 = PRODUCT_RELATED_PRODUCT_CATEGORY ( 'detail', '', ( #106 ) ) ;
#101 = FACE_BOUND ( 'NONE', #160, .T. ) ;
#102 = ORGANIZATION ( 'UNSPECIFIED', 'UNSPECIFIED', '' ) ;
#103 =( LENGTH_UNIT ( ) NAMED_UNIT ( * ) SI_UNIT ( .MILLI., .METRE. ) );
#104 = AXIS2_PLACEMENT_3D ( 'NONE', #220, #151, #169 ) ;
#105 = APPROVAL_STATUS ( 'not_yet_approved' ) ;
#106 = PRODUCT ( '372639', '372639', '', ( #158 ) ) ;
#107 = DIRECTION ( 'NONE',  ( 3.491481338843133355E-15, -1.224646799147353207E-16, 1.000000000000000000 ) ) ;
#108 = COORDINATED_UNIVERSAL_TIME_OFFSET ( 1, 0, .AHEAD. ) ;
#109 = EDGE_LOOP ( 'NONE', ( #195 ) ) ;
#110 = SECURITY_CLASSIFICATION ( '', '', #141 ) ;
#111 = SHAPE_DEFINITION_REPRESENTATION ( #87, #125 ) ;
#112 = EDGE_LOOP ( 'NONE', ( #59 ) ) ;
#113 = CARTESIAN_POINT ( 'NONE',  ( 2.793185071074506684E-14, -1.021173848934956212E-15, 8.000000000000000000 ) ) ;
#114 = DATE_TIME_ROLE ( 'classification_date' ) ;
#115 = VERTEX_POINT ( 'NONE', #96 ) ;
#116 = VERTEX_POINT ( 'NONE', #99 ) ;
#117 = LOCAL_TIME ( 10, 33, 18.00000000000000000, #128 ) ;
#118 = APPROVAL ( #127, 'UNSPECIFIED' ) ;
#119 = CIRCLE ( 'NONE', #147, 1.499999999999998446 ) ;
#120 = CC_DESIGN_SECURITY_CLASSIFICATION ( #110, ( #35 ) ) ;
#121 = ADVANCED_FACE ( 'NONE', ( #149 ), #46, .F. ) ;
#122 =( NAMED_UNIT ( * ) PLANE_ANGLE_UNIT ( ) SI_UNIT ( $, .RADIAN. ) );
#123 = ORIENTED_EDGE ( 'NONE', *, *, #178, .T. ) ;
#124 = APPROVAL_DATE_TIME ( #56, #135 ) ;
#125 = ADVANCED_BREP_SHAPE_REPRESENTATION ( '372639', ( #187, #181, #190 ), #98 ) ;
#126 = FACE_OUTER_BOUND ( 'NONE', #5, .T. ) ;
#127 = APPROVAL_STATUS ( 'not_yet_approved' ) ;
#128 = COORDINATED_UNIVERSAL_TIME_OFFSET ( 1, 0, .AHEAD. ) ;
#129 = EDGE_LOOP ( 'NONE', ( #123 ) ) ;
#130 = LOCAL_TIME ( 10, 33, 18.00000000000000000, #174 ) ;
#131 = DIRECTION ( 'NONE',  ( 0.0000000000000000000, 1.000000000000000000, 0.0000000000000000000 ) ) ;
#132 = CC_DESIGN_PERSON_AND_ORGANIZATION_ASSIGNMENT ( #136, #156, ( #106 ) ) ;
#133 = CARTESIAN_POINT ( 'NONE',  ( 3.118944714830530995E-14, -1.499999999999997780, 8.933012701892204532 ) ) ;
#134 = DIRECTION ( 'NONE',  ( 0.0000000000000000000, -1.000000000000000000, 0.0000000000000000000 ) ) ;
#135 = APPROVAL ( #105, 'UNSPECIFIED' ) ;
#136 = PERSON_AND_ORGANIZATION ( #26, #102 ) ;
#137 =( NAMED_UNIT ( * ) SI_UNIT ( $, .STERADIAN. ) SOLID_ANGLE_UNIT ( ) );
#138 = CARTESIAN_POINT ( 'NONE',  ( 9.308377946195076208E-14, -3.403094278676149666E-15, 26.66025403784432513 ) ) ;
#139 = APPROVAL_DATE_TIME ( #68, #88 ) ;
#140 = FACE_BOUND ( 'NONE', #129, .T. ) ;
#141 = SECURITY_CLASSIFICATION_LEVEL ( 'unclassified' ) ;
#142 = ORIENTED_EDGE ( 'NONE', *, *, #66, .T. ) ;
#143 = CALENDAR_DATE ( 2021, 8, 12 ) ;
#144 = PERSON_AND_ORGANIZATION ( #26, #102 ) ;
#145 = DESIGN_CONTEXT ( 'detailed design', #43, 'design' ) ;
#146 = FACE_OUTER_BOUND ( 'NONE', #112, .T. ) ;
#147 = AXIS2_PLACEMENT_3D ( 'NONE', #218, #23, #45 ) ;
#148 = AXIS2_PLACEMENT_3D ( 'NONE', #113, #83, #78 ) ;
#149 = FACE_OUTER_BOUND ( 'NONE', #27, .T. ) ;
#150 = VERTEX_POINT ( 'NONE', #6 ) ;
#151 = DIRECTION ( 'NONE',  ( 3.491481338843133355E-15, -1.224646799147353207E-16, 1.000000000000000000 ) ) ;
#152 = ADVANCED_FACE ( 'NONE', ( #33, #146 ), #82, .T. ) ;
#153 = AXIS2_PLACEMENT_3D ( 'NONE', #50, #16, #131 ) ;
#154 = CALENDAR_DATE ( 2021, 8, 12 ) ;
#155 = DIRECTION ( 'NONE',  ( -3.491481338843133355E-15, 1.224646799147353207E-16, -1.000000000000000000 ) ) ;
#156 = PERSON_AND_ORGANIZATION_ROLE ( 'design_owner' ) ;
#157 = DIRECTION ( 'NONE',  ( 0.0000000000000000000, -1.000000000000000000, 0.0000000000000000000 ) ) ;
#158 = MECHANICAL_CONTEXT ( 'NONE', #32, 'mechanical' ) ;
#159 = DIRECTION ( 'NONE',  ( -3.491481338843133355E-15, 1.276467311168695266E-16, -1.000000000000000000 ) ) ;
#160 = EDGE_LOOP ( 'NONE', ( #198 ) ) ;
#161 = ORIENTED_EDGE ( 'NONE', *, *, #14, .T. ) ;
#162 = VERTEX_POINT ( 'NONE', #203 ) ;
#163 = CARTESIAN_POINT ( 'NONE',  ( 2.793185071074506684E-14, -1.021173848934956212E-15, 8.000000000000000000 ) ) ;
#164 = PERSON_AND_ORGANIZATION_ROLE ( 'design_supplier' ) ;
#165 = EDGE_CURVE ( 'NONE', #204, #204, #79, .T. ) ;
#166 = CARTESIAN_POINT ( 'NONE',  ( 0.0000000000000000000, 0.0000000000000000000, 0.0000000000000000000 ) ) ;
#167 = CIRCLE ( 'NONE', #97, 1.499999999999996669 ) ;
#168 = AXIS2_PLACEMENT_3D ( 'NONE', #170, #94, #31 ) ;
#169 = DIRECTION ( 'NONE',  ( -4.275831445896958607E-31, -1.000000000000000000, -1.224646799147353207E-16 ) ) ;
#170 = CARTESIAN_POINT ( 'NONE',  ( 2.793185071074506684E-14, 1.124819836996388006E-32, 8.000000000000000000 ) ) ;
#171 = ADVANCED_FACE ( 'NONE', ( #185, #205 ), #95, .T. ) ;
#172 = LOCAL_TIME ( 10, 33, 18.00000000000000000, #108 ) ;
#173 = EDGE_CURVE ( 'NONE', #116, #116, #3, .T. ) ;
#174 = COORDINATED_UNIVERSAL_TIME_OFFSET ( 1, 0, .AHEAD. ) ;
#175 = CLOSED_SHELL ( 'NONE', ( #192, #171, #121 ) ) ;
#176 = COORDINATED_UNIVERSAL_TIME_OFFSET ( 1, 0, .AHEAD. ) ;
#177 = CARTESIAN_POINT ( 'NONE',  ( 3.118944714830530995E-14, -1.140269870422014268E-15, 8.933012701892204532 ) ) ;
#178 = EDGE_CURVE ( 'NONE', #150, #150, #69, .T. ) ;
#179 = ORIENTED_EDGE ( 'NONE', *, *, #173, .T. ) ;
#180 = ORIENTED_EDGE ( 'NONE', *, *, #173, .F. ) ;
#181 = MANIFOLD_SOLID_BREP ( 'Corps-Déplacer/Copier1[2]', #175 ) ;
#182 = AXIS2_PLACEMENT_3D ( 'NONE', #138, #215, #20 ) ;
#183 = DIRECTION ( 'NONE',  ( 3.491481338843133355E-15, -1.276467311168695266E-16, 1.000000000000000000 ) ) ;
#184 = CC_DESIGN_PERSON_AND_ORGANIZATION_ASSIGNMENT ( #11, #201, ( #110 ) ) ;
#185 = FACE_OUTER_BOUND ( 'NONE', #7, .T. ) ;
#186 = CONICAL_SURFACE ( 'NONE', #182, 6.249999999999998224, 0.2617993877991501850 ) ;
#187 = MANIFOLD_SOLID_BREP ( 'Corps-Déplacer/Copier1[1]', #55 ) ;
#188 = ADVANCED_FACE ( 'NONE', ( #62, #101 ), #28, .T. ) ;
#189 = APPROVAL_PERSON_ORGANIZATION ( #38, #135, #212 ) ;
#190 = AXIS2_PLACEMENT_3D ( 'NONE', #24, #67, #39 ) ;
#191 = PERSON_AND_ORGANIZATION ( #26, #102 ) ;
#192 = ADVANCED_FACE ( 'NONE', ( #81 ), #29, .T. ) ;
#193 = CARTESIAN_POINT ( 'NONE',  ( 2.793185071074506684E-14, 1.124819836996388006E-32, 8.000000000000000000 ) ) ;
#194 = DATE_TIME_ROLE ( 'creation_date' ) ;
#195 = ORIENTED_EDGE ( 'NONE', *, *, #14, .F. ) ;
#196 = CC_DESIGN_PERSON_AND_ORGANIZATION_ASSIGNMENT ( #144, #164, ( #35 ) ) ;
#197 = AXIS2_PLACEMENT_3D ( 'NONE', #163, #19, #134 ) ;
#198 = ORIENTED_EDGE ( 'NONE', *, *, #30, .T. ) ;
#199 = DATE_AND_TIME ( #143, #42 ) ;
#200 = CC_DESIGN_DATE_AND_TIME_ASSIGNMENT ( #199, #114, ( #110 ) ) ;
#201 = PERSON_AND_ORGANIZATION_ROLE ( 'classification_officer' ) ;
#202 = UNCERTAINTY_MEASURE_WITH_UNIT (LENGTH_MEASURE( 1.000000000000000082E-05 ), #103, 'distance_accuracy_value', 'NONE');
#203 = CARTESIAN_POINT ( 'NONE',  ( 1.316288464743861212E-13, 1.499999999999994005, 37.69999999999999574 ) ) ;
#204 = VERTEX_POINT ( 'NONE', #64 ) ;
#205 = FACE_OUTER_BOUND ( 'NONE', #72, .T. ) ;
#206 = AXIS2_PLACEMENT_3D ( 'NONE', #193, #107, #71 ) ;
#207 = APPROVAL_PERSON_ORGANIZATION ( #191, #88, #58 ) ;
#208 = EDGE_LOOP ( 'NONE', ( #161 ) ) ;
#209 = AXIS2_PLACEMENT_3D ( 'NONE', #53, #1, #210 ) ;
#210 = DIRECTION ( 'NONE',  ( -4.456761796588770537E-31, -1.000000000000000000, -1.276467311168695019E-16 ) ) ;
#211 = APPLICATION_PROTOCOL_DEFINITION ( 'international standard', 'config_control_design', 1994, #32 ) ;
#212 = APPROVAL_ROLE ( '' ) ;
#213 = CARTESIAN_POINT ( 'NONE',  ( 1.326762908760390423E-13, -4.653657836759941941E-15, 38.00000000000000000 ) ) ;
#214 = DIRECTION ( 'NONE',  ( -3.491481338843133355E-15, 1.224646799147353207E-16, -1.000000000000000000 ) ) ;
#215 = DIRECTION ( 'NONE',  ( 3.491481338843133355E-15, -1.276467311168695266E-16, 1.000000000000000000 ) ) ;
#216 = FACE_OUTER_BOUND ( 'NONE', #13, .T. ) ;
#217 = COORDINATED_UNIVERSAL_TIME_OFFSET ( 1, 0, .AHEAD. ) ;
#218 = CARTESIAN_POINT ( 'NONE',  ( 1.316288464743861212E-13, -4.616918432785521081E-15, 37.69999999999999574 ) ) ;
#219 = CC_DESIGN_PERSON_AND_ORGANIZATION_ASSIGNMENT ( #70, #36, ( #34 ) ) ;
#220 = CARTESIAN_POINT ( 'NONE',  ( -4.275811853558654851E-31, 1.499752910594656683E-32, -1.224641187678637749E-16 ) ) ;
#221 = PERSON_AND_ORGANIZATION_ROLE ( 'creator' ) ;
#222 = DIRECTION ( 'NONE',  ( -4.456761796588770537E-31, -1.000000000000000000, -1.276467311168695266E-16 ) ) ;
#223 = APPROVAL_PERSON_ORGANIZATION ( #17, #118, #91 ) ;
ENDSEC;
END-ISO-10303-21;
