ISO-10303-21;
HEADER;
FILE_DESCRIPTION (( 'STEP AP203' ),
    '1' );
FILE_NAME ('372637.step',
    '2021-12-08T09:33:17',
    ( '' ),
    ( '' ),
    'SwSTEP 2.0',
    'SolidWorks 2019',
    '' );
FILE_SCHEMA (( 'CONFIG_CONTROL_DESIGN' ));
ENDSEC;

DATA;
#1 = CC_DESIGN_APPROVAL ( #203, ( #38 ) ) ;
#2 = ORIENTED_EDGE ( 'NONE', *, *, #71, .F. ) ;
#3 = APPLICATION_CONTEXT ( 'configuration controlled 3d designs of mechanical parts and assemblies' ) ;
#4 = AXIS2_PLACEMENT_3D ( 'NONE', #63, #184, #10 ) ;
#5 = EDGE_CURVE ( 'NONE', #61, #61, #73, .T. ) ;
#6 = CARTESIAN_POINT ( 'NONE',  ( 2.084414359289350550E-13, 1.499999999999995337, 59.69999999999999574 ) ) ;
#7 = DATE_TIME_ROLE ( 'creation_date' ) ;
#8 = DIRECTION ( 'NONE',  ( 3.491481338843133355E-15, -1.224646799147353207E-16, 1.000000000000000000 ) ) ;
#9 = PERSON_AND_ORGANIZATION_ROLE ( 'creator' ) ;
#10 = DIRECTION ( 'NONE',  ( -4.456761796588771413E-31, -1.000000000000000000, -1.276467311168695019E-16 ) ) ;
#11 = PERSON_AND_ORGANIZATION ( #151, #149 ) ;
#12 = ADVANCED_FACE ( 'NONE', ( #36 ), #32, .T. ) ;
#13 = APPLICATION_CONTEXT ( 'configuration controlled 3d designs of mechanical parts and assemblies' ) ;
#14 = PLANE ( 'NONE',  #180 ) ;
#15 = APPROVAL_ROLE ( '' ) ;
#16 = DIRECTION ( 'NONE',  ( -3.491481338843133355E-15, 1.224646799147353207E-16, -1.000000000000000000 ) ) ;
#17 = CC_DESIGN_SECURITY_CLASSIFICATION ( #160, ( #117 ) ) ;
#18 = APPROVAL_DATE_TIME ( #33, #140 ) ;
#19 = ORIENTED_EDGE ( 'NONE', *, *, #71, .T. ) ;
#20 = CIRCLE ( 'NONE', #88, 1.500000000000000000 ) ;
#21 = AXIS2_PLACEMENT_3D ( 'NONE', #27, #108, #96 ) ;
#22 = ADVANCED_FACE ( 'NONE', ( #62 ), #116, .F. ) ;
#23 = CARTESIAN_POINT ( 'NONE',  ( -3.618607013836511207E-32, -0.9999999999999986677, -1.036410240426918204E-17 ) ) ;
#24 = ORIENTED_EDGE ( 'NONE', *, *, #5, .T. ) ;
#25 = PRODUCT_RELATED_PRODUCT_CATEGORY ( 'detail', '', ( #105 ) ) ;
#26 = AXIS2_PLACEMENT_3D ( 'NONE', #141, #209, #194 ) ;
#27 = CARTESIAN_POINT ( 'NONE',  ( 2.793185071074506684E-14, -1.021173848934956212E-15, 8.000000000000000000 ) ) ;
#28 = DATE_AND_TIME ( #75, #69 ) ;
#29 = APPROVAL_PERSON_ORGANIZATION ( #213, #57, #78 ) ;
#30 = CARTESIAN_POINT ( 'NONE',  ( 2.094888803305880013E-13, 8.998558695971058066E-33, 60.00000000000000000 ) ) ;
#31 =( NAMED_UNIT ( * ) SI_UNIT ( $, .STERADIAN. ) SOLID_ANGLE_UNIT ( ) );
#32 = PLANE ( 'NONE',  #39 ) ;
#33 = DATE_AND_TIME ( #120, #35 ) ;
#34 = CONICAL_SURFACE ( 'NONE', #218, 1.200000000000002842, 0.7853981633974450594 ) ;
#35 = LOCAL_TIME ( 10, 33, 17.00000000000000000, #156 ) ;
#36 = FACE_OUTER_BOUND ( 'NONE', #127, .T. ) ;
#37 = CARTESIAN_POINT ( 'NONE',  ( 4.094901095205113395E-31, -3.841940660073961603E-32, 1.172826287126001781E-16 ) ) ;
#38 = PRODUCT_DEFINITION ( 'UNKNOWN', '', #117, #100 ) ;
#39 = AXIS2_PLACEMENT_3D ( 'NONE', #146, #8, #94 ) ;
#40 = AXIS2_PLACEMENT_3D ( 'NONE', #210, #44, #48 ) ;
#41 = ADVANCED_FACE ( 'NONE', ( #169, #166 ), #134, .T. ) ;
#42 = FACE_OUTER_BOUND ( 'NONE', #162, .T. ) ;
#43 = AXIS2_PLACEMENT_3D ( 'NONE', #49, #197, #181 ) ;
#44 = DIRECTION ( 'NONE',  ( -3.491481338843133355E-15, 1.224646799147353207E-16, -1.000000000000000000 ) ) ;
#45 = CC_DESIGN_DATE_AND_TIME_ASSIGNMENT ( #205, #104, ( #160 ) ) ;
#46 = ORIENTED_EDGE ( 'NONE', *, *, #178, .F. ) ;
#47 = DIRECTION ( 'NONE',  ( 3.491481338843133355E-15, -1.224646799147353207E-16, 1.000000000000000000 ) ) ;
#48 = DIRECTION ( 'NONE',  ( 0.0000000000000000000, 1.000000000000000000, 0.0000000000000000000 ) ) ;
#49 = CARTESIAN_POINT ( 'NONE',  ( 0.0000000000000000000, 0.0000000000000000000, 0.0000000000000000000 ) ) ;
#50 = APPLICATION_PROTOCOL_DEFINITION ( 'international standard', 'config_control_design', 1994, #13 ) ;
#51 = CARTESIAN_POINT ( 'NONE',  ( 3.444704358586564773E-14, -1.259365891909075873E-15, 9.866025403784437486 ) ) ;
#52 = PERSON_AND_ORGANIZATION ( #151, #149 ) ;
#53 = DIRECTION ( 'NONE',  ( 0.0000000000000000000, 1.000000000000000000, 0.0000000000000000000 ) ) ;
#54 = PERSON_AND_ORGANIZATION_ROLE ( 'creator' ) ;
#55 = CLOSED_SHELL ( 'NONE', ( #12, #41, #174 ) ) ;
#56 = AXIS2_PLACEMENT_3D ( 'NONE', #111, #72, #109 ) ;
#57 = APPROVAL ( #201, 'UNSPECIFIED' ) ;
#58 = CC_DESIGN_APPROVAL ( #140, ( #160 ) ) ;
#59 = APPROVAL_DATE_TIME ( #66, #57 ) ;
#60 = ORIENTED_EDGE ( 'NONE', *, *, #193, .F. ) ;
#61 = VERTEX_POINT ( 'NONE', #168 ) ;
#62 = FACE_OUTER_BOUND ( 'NONE', #161, .T. ) ;
#63 = CARTESIAN_POINT ( 'NONE',  ( -6.413839710158237013E-31, 0.0000000000000000000, -1.836996703606440502E-16 ) ) ;
#64 = CARTESIAN_POINT ( 'NONE',  ( 2.793185071074506684E-14, -1.000000000000000000, 8.000000000000000000 ) ) ;
#65 = FACE_OUTER_BOUND ( 'NONE', #74, .T. ) ;
#66 = DATE_AND_TIME ( #223, #113 ) ;
#67 = UNCERTAINTY_MEASURE_WITH_UNIT (LENGTH_MEASURE( 1.000000000000000082E-05 ), #112, 'distance_accuracy_value', 'NONE');
#68 = SECURITY_CLASSIFICATION_LEVEL ( 'unclassified' ) ;
#69 = LOCAL_TIME ( 10, 33, 17.00000000000000000, #80 ) ;
#70 = APPROVAL_PERSON_ORGANIZATION ( #86, #140, #15 ) ;
#71 = EDGE_CURVE ( 'NONE', #215, #215, #20, .T. ) ;
#72 = DIRECTION ( 'NONE',  ( -3.491481338843133355E-15, 1.224646799147353207E-16, -1.000000000000000000 ) ) ;
#73 = CIRCLE ( 'NONE', #106, 1.200000000000002842 ) ;
#74 = EDGE_LOOP ( 'NONE', ( #128 ) ) ;
#75 = CALENDAR_DATE ( 2021, 8, 12 ) ;
#76 = CLOSED_SHELL ( 'NONE', ( #196, #103, #126, #145, #22 ) ) ;
#77 = EDGE_LOOP ( 'NONE', ( #19 ) ) ;
#78 = APPROVAL_ROLE ( '' ) ;
#79 = CC_DESIGN_DATE_AND_TIME_ASSIGNMENT ( #28, #7, ( #38 ) ) ;
#80 = COORDINATED_UNIVERSAL_TIME_OFFSET ( 1, 0, .AHEAD. ) ;
#81 = DIRECTION ( 'NONE',  ( 4.275831445896958607E-31, 1.000000000000000000, 1.224646799147353207E-16 ) ) ;
#82 = APPROVAL_ROLE ( '' ) ;
#83 = DIRECTION ( 'NONE',  ( 0.0000000000000000000, 1.000000000000000000, 0.0000000000000000000 ) ) ;
#84 = PLANE ( 'NONE',  #85 ) ;
#85 = AXIS2_PLACEMENT_3D ( 'NONE', #131, #47, #198 ) ;
#86 = PERSON_AND_ORGANIZATION ( #151, #149 ) ;
#87 = ADVANCED_BREP_SHAPE_REPRESENTATION ( '372637', ( #155, #148, #43 ), #130 ) ;
#88 = AXIS2_PLACEMENT_3D ( 'NONE', #51, #185, #187 ) ;
#89 = ORIENTED_EDGE ( 'NONE', *, *, #139, .T. ) ;
#90 = ORIENTED_EDGE ( 'NONE', *, *, #221, .T. ) ;
#91 =( NAMED_UNIT ( * ) PLANE_ANGLE_UNIT ( ) SI_UNIT ( $, .RADIAN. ) );
#92 = VERTEX_POINT ( 'NONE', #64 ) ;
#93 = CC_DESIGN_PERSON_AND_ORGANIZATION_ASSIGNMENT ( #165, #9, ( #38 ) ) ;
#94 = DIRECTION ( 'NONE',  ( -4.275831445896958607E-31, -1.000000000000000000, -1.224646799147353207E-16 ) ) ;
#95 = PERSON_AND_ORGANIZATION_ROLE ( 'design_owner' ) ;
#96 = DIRECTION ( 'NONE',  ( 0.0000000000000000000, -1.000000000000000000, 0.0000000000000000000 ) ) ;
#97 = DIRECTION ( 'NONE',  ( -3.491481338843133355E-15, 1.224646799147353207E-16, -1.000000000000000000 ) ) ;
#98 = FACE_OUTER_BOUND ( 'NONE', #132, .T. ) ;
#99 = DIRECTION ( 'NONE',  ( -3.491481338843133355E-15, 1.224646799147353207E-16, -1.000000000000000000 ) ) ;
#100 = DESIGN_CONTEXT ( 'detailed design', #3, 'design' ) ;
#101 = CALENDAR_DATE ( 2021, 8, 12 ) ;
#102 = CARTESIAN_POINT ( 'NONE',  ( 9.308377946195078733E-14, -3.403094278676150455E-15, 26.66025403784433223 ) ) ;
#103 = ADVANCED_FACE ( 'NONE', ( #200, #216 ), #34, .T. ) ;
#104 = DATE_TIME_ROLE ( 'classification_date' ) ;
#105 = PRODUCT ( '372637', '372637', '', ( #217 ) ) ;
#106 = AXIS2_PLACEMENT_3D ( 'NONE', #214, #99, #83 ) ;
#107 = CIRCLE ( 'NONE', #21, 0.9999999999999988898 ) ;
#108 = DIRECTION ( 'NONE',  ( 3.491481338843133355E-15, -1.276467311168695266E-16, 1.000000000000000000 ) ) ;
#109 = DIRECTION ( 'NONE',  ( 4.275831445896959482E-31, 1.000000000000000000, 1.224646799147353207E-16 ) ) ;
#110 = LOCAL_TIME ( 10, 33, 17.00000000000000000, #183 ) ;
#111 = CARTESIAN_POINT ( 'NONE',  ( 0.0000000000000000000, 0.0000000000000000000, 0.0000000000000000000 ) ) ;
#112 =( LENGTH_UNIT ( ) NAMED_UNIT ( * ) SI_UNIT ( .MILLI., .METRE. ) );
#113 = LOCAL_TIME ( 10, 33, 17.00000000000000000, #147 ) ;
#114 = CARTESIAN_POINT ( 'NONE',  ( 2.094888803305880013E-13, -7.347880794884118356E-15, 60.00000000000000000 ) ) ;
#115 = FACE_OUTER_BOUND ( 'NONE', #77, .T. ) ;
#116 = PLANE ( 'NONE',  #191 ) ;
#117 = PRODUCT_DEFINITION_FORMATION_WITH_SPECIFIED_SOURCE ( 'ANY', '', #105, .NOT_KNOWN. ) ;
#118 = PERSON_AND_ORGANIZATION ( #151, #149 ) ;
#119 = ORIENTED_EDGE ( 'NONE', *, *, #193, .T. ) ;
#120 = CALENDAR_DATE ( 2021, 8, 12 ) ;
#121 = ORIENTED_EDGE ( 'NONE', *, *, #178, .T. ) ;
#122 = AXIS2_PLACEMENT_3D ( 'NONE', #102, #173, #152 ) ;
#123 = PRODUCT_DEFINITION_SHAPE ( 'NONE', 'NONE',  #38 ) ;
#124 = EDGE_LOOP ( 'NONE', ( #46 ) ) ;
#125 = CARTESIAN_POINT ( 'NONE',  ( 3.444704358586564773E-14, -1.500000000000001332, 9.866025403784437486 ) ) ;
#126 = ADVANCED_FACE ( 'NONE', ( #98 ), #14, .F. ) ;
#127 = EDGE_LOOP ( 'NONE', ( #121 ) ) ;
#128 = ORIENTED_EDGE ( 'NONE', *, *, #139, .F. ) ;
#129 = VERTEX_POINT ( 'NONE', #6 ) ;
#130 =( GEOMETRIC_REPRESENTATION_CONTEXT ( 3 ) GLOBAL_UNCERTAINTY_ASSIGNED_CONTEXT ( ( #67 ) ) GLOBAL_UNIT_ASSIGNED_CONTEXT ( ( #112, #91, #31 ) ) REPRESENTATION_CONTEXT ( 'NONE', 'WORKASPACE' ) );
#131 = CARTESIAN_POINT ( 'NONE',  ( -2.137983498424616860E-31, 7.499036637678566550E-33, -6.123428112415504550E-17 ) ) ;
#132 = EDGE_LOOP ( 'NONE', ( #158 ) ) ;
#133 = DIRECTION ( 'NONE',  ( 3.491481338843133355E-15, -1.224646799147353207E-16, 1.000000000000000000 ) ) ;
#134 = CYLINDRICAL_SURFACE ( 'NONE', #4, 0.9999999999999986677 ) ;
#135 = APPROVAL_DATE_TIME ( #167, #203 ) ;
#136 = CIRCLE ( 'NONE', #159, 0.9999999999999986677 ) ;
#137 = CC_DESIGN_PERSON_AND_ORGANIZATION_ASSIGNMENT ( #144, #95, ( #105 ) ) ;
#138 = CIRCLE ( 'NONE', #40, 1.500000000000002665 ) ;
#139 = EDGE_CURVE ( 'NONE', #188, #188, #136, .T. ) ;
#140 = APPROVAL ( #172, 'UNSPECIFIED' ) ;
#141 = CARTESIAN_POINT ( 'NONE',  ( 2.793185071074506684E-14, -1.021173848934956212E-15, 8.000000000000000000 ) ) ;
#142 = FACE_OUTER_BOUND ( 'NONE', #211, .T. ) ;
#143 = CIRCLE ( 'NONE', #26, 0.9999999999999988898 ) ;
#144 = PERSON_AND_ORGANIZATION ( #151, #149 ) ;
#145 = ADVANCED_FACE ( 'NONE', ( #150, #115 ), #170, .T. ) ;
#146 = CARTESIAN_POINT ( 'NONE',  ( 2.793185071074506684E-14, 1.124819836996389648E-32, 8.000000000000000000 ) ) ;
#147 = COORDINATED_UNIVERSAL_TIME_OFFSET ( 1, 0, .AHEAD. ) ;
#148 = MANIFOLD_SOLID_BREP ( 'Corps-Déplacer/Copier1[2]', #55 ) ;
#149 = ORGANIZATION ( 'UNSPECIFIED', 'UNSPECIFIED', '' ) ;
#150 = FACE_BOUND ( 'NONE', #179, .T. ) ;
#151 = PERSON ( 'UNSPECIFIED', 'UNSPECIFIED', 'UNSPECIFIED', ('UNSPECIFIED'), ('UNSPECIFIED'), ('UNSPECIFIED') ) ;
#152 = DIRECTION ( 'NONE',  ( 0.0000000000000000000, -1.000000000000000000, 0.0000000000000000000 ) ) ;
#153 = EDGE_LOOP ( 'NONE', ( #24 ) ) ;
#154 = CARTESIAN_POINT ( 'NONE',  ( 2.793185071074506684E-14, 1.124819836996389648E-32, 8.000000000000000000 ) ) ;
#155 = MANIFOLD_SOLID_BREP ( 'Corps-Déplacer/Copier1[1]', #76 ) ;
#156 = COORDINATED_UNIVERSAL_TIME_OFFSET ( 1, 0, .AHEAD. ) ;
#157 = LOCAL_TIME ( 10, 33, 17.00000000000000000, #190 ) ;
#158 = ORIENTED_EDGE ( 'NONE', *, *, #5, .F. ) ;
#159 = AXIS2_PLACEMENT_3D ( 'NONE', #37, #202, #220 ) ;
#160 = SECURITY_CLASSIFICATION ( '', '', #68 ) ;
#161 = EDGE_LOOP ( 'NONE', ( #192 ) ) ;
#162 = EDGE_LOOP ( 'NONE', ( #119 ) ) ;
#163 = APPROVAL_STATUS ( 'not_yet_approved' ) ;
#164 = APPLICATION_PROTOCOL_DEFINITION ( 'international standard', 'config_control_design', 1994, #3 ) ;
#165 = PERSON_AND_ORGANIZATION ( #151, #149 ) ;
#166 = FACE_OUTER_BOUND ( 'NONE', #124, .T. ) ;
#167 = DATE_AND_TIME ( #219, #110 ) ;
#168 = CARTESIAN_POINT ( 'NONE',  ( 2.094888803305880013E-13, 1.199999999999995515, 60.00000000000000000 ) ) ;
#169 = FACE_OUTER_BOUND ( 'NONE', #195, .T. ) ;
#170 = CONICAL_SURFACE ( 'NONE', #122, 5.999999999999999112, 0.2617993877991501850 ) ;
#171 = PERSON_AND_ORGANIZATION_ROLE ( 'classification_officer' ) ;
#172 = APPROVAL_STATUS ( 'not_yet_approved' ) ;
#173 = DIRECTION ( 'NONE',  ( 3.491481338843133355E-15, -1.276467311168695266E-16, 1.000000000000000000 ) ) ;
#174 = ADVANCED_FACE ( 'NONE', ( #65 ), #84, .F. ) ;
#175 = CC_DESIGN_APPROVAL ( #57, ( #117 ) ) ;
#176 = SHAPE_DEFINITION_REPRESENTATION ( #123, #87 ) ;
#177 = CYLINDRICAL_SURFACE ( 'NONE', #56, 1.500000000000000000 ) ;
#178 = EDGE_CURVE ( 'NONE', #212, #212, #143, .T. ) ;
#179 = EDGE_LOOP ( 'NONE', ( #90 ) ) ;
#180 = AXIS2_PLACEMENT_3D ( 'NONE', #30, #97, #81 ) ;
#181 = DIRECTION ( 'NONE',  ( 1.000000000000000000, 0.0000000000000000000, 0.0000000000000000000 ) ) ;
#182 = CC_DESIGN_PERSON_AND_ORGANIZATION_ASSIGNMENT ( #118, #54, ( #117 ) ) ;
#183 = COORDINATED_UNIVERSAL_TIME_OFFSET ( 1, 0, .AHEAD. ) ;
#184 = DIRECTION ( 'NONE',  ( 3.491481338843133355E-15, -1.276467311168695266E-16, 1.000000000000000000 ) ) ;
#185 = DIRECTION ( 'NONE',  ( -3.491481338843133355E-15, 1.276467311168695266E-16, -1.000000000000000000 ) ) ;
#186 = PERSON_AND_ORGANIZATION_ROLE ( 'design_supplier' ) ;
#187 = DIRECTION ( 'NONE',  ( 0.0000000000000000000, -1.000000000000000000, 0.0000000000000000000 ) ) ;
#188 = VERTEX_POINT ( 'NONE', #23 ) ;
#189 = CC_DESIGN_PERSON_AND_ORGANIZATION_ASSIGNMENT ( #208, #171, ( #160 ) ) ;
#190 = COORDINATED_UNIVERSAL_TIME_OFFSET ( 1, 0, .AHEAD. ) ;
#191 = AXIS2_PLACEMENT_3D ( 'NONE', #154, #133, #204 ) ;
#192 = ORIENTED_EDGE ( 'NONE', *, *, #221, .F. ) ;
#193 = EDGE_CURVE ( 'NONE', #129, #129, #138, .T. ) ;
#194 = DIRECTION ( 'NONE',  ( 0.0000000000000000000, -1.000000000000000000, 0.0000000000000000000 ) ) ;
#195 = EDGE_LOOP ( 'NONE', ( #89 ) ) ;
#196 = ADVANCED_FACE ( 'NONE', ( #42, #142 ), #177, .T. ) ;
#197 = DIRECTION ( 'NONE',  ( 0.0000000000000000000, 0.0000000000000000000, 1.000000000000000000 ) ) ;
#198 = DIRECTION ( 'NONE',  ( -4.275831445896958607E-31, -1.000000000000000000, -1.224646799147353207E-16 ) ) ;
#199 = CC_DESIGN_PERSON_AND_ORGANIZATION_ASSIGNMENT ( #52, #186, ( #117 ) ) ;
#200 = FACE_OUTER_BOUND ( 'NONE', #222, .T. ) ;
#201 = APPROVAL_STATUS ( 'not_yet_approved' ) ;
#202 = DIRECTION ( 'NONE',  ( 3.491481338843133355E-15, -1.276467311168695266E-16, 1.000000000000000000 ) ) ;
#203 = APPROVAL ( #163, 'UNSPECIFIED' ) ;
#204 = DIRECTION ( 'NONE',  ( -4.275831445896958607E-31, -1.000000000000000000, -1.224646799147353207E-16 ) ) ;
#205 = DATE_AND_TIME ( #101, #157 ) ;
#206 = APPROVAL_PERSON_ORGANIZATION ( #11, #203, #82 ) ;
#207 = CARTESIAN_POINT ( 'NONE',  ( 2.793185071074506684E-14, -1.000000000000000000, 8.000000000000000000 ) ) ;
#208 = PERSON_AND_ORGANIZATION ( #151, #149 ) ;
#209 = DIRECTION ( 'NONE',  ( 3.491481338843133355E-15, -1.276467311168695266E-16, 1.000000000000000000 ) ) ;
#210 = CARTESIAN_POINT ( 'NONE',  ( 2.084414359289350550E-13, -7.311141390909697496E-15, 59.69999999999999574 ) ) ;
#211 = EDGE_LOOP ( 'NONE', ( #2 ) ) ;
#212 = VERTEX_POINT ( 'NONE', #207 ) ;
#213 = PERSON_AND_ORGANIZATION ( #151, #149 ) ;
#214 = CARTESIAN_POINT ( 'NONE',  ( 2.094888803305880013E-13, -7.347880794884118356E-15, 60.00000000000000000 ) ) ;
#215 = VERTEX_POINT ( 'NONE', #125 ) ;
#216 = FACE_BOUND ( 'NONE', #153, .T. ) ;
#217 = MECHANICAL_CONTEXT ( 'NONE', #13, 'mechanical' ) ;
#218 = AXIS2_PLACEMENT_3D ( 'NONE', #114, #16, #53 ) ;
#219 = CALENDAR_DATE ( 2021, 8, 12 ) ;
#220 = DIRECTION ( 'NONE',  ( -4.456761796588770537E-31, -1.000000000000000000, -1.276467311168695266E-16 ) ) ;
#221 = EDGE_CURVE ( 'NONE', #92, #92, #107, .T. ) ;
#222 = EDGE_LOOP ( 'NONE', ( #60 ) ) ;
#223 = CALENDAR_DATE ( 2021, 8, 12 ) ;
ENDSEC;
END-ISO-10303-21;
