ISO-10303-21;
HEADER;
FILE_DESCRIPTION (( 'STEP AP203' ),
    '1' );
FILE_NAME ('372636.step',
    '2021-12-08T09:33:16',
    ( '' ),
    ( '' ),
    'SwSTEP 2.0',
    'SolidWorks 2019',
    '' );
FILE_SCHEMA (( 'CONFIG_CONTROL_DESIGN' ));
ENDSEC;

DATA;
#1 = EDGE_LOOP ( 'NONE', ( #29 ) ) ;
#2 = AXIS2_PLACEMENT_3D ( 'NONE', #102, #30, #33 ) ;
#3 = ORIENTED_EDGE ( 'NONE', *, *, #183, .F. ) ;
#4 = ADVANCED_FACE ( 'NONE', ( #132, #170 ), #113, .T. ) ;
#5 = CARTESIAN_POINT ( 'NONE',  ( 2.793185071074506684E-14, -1.000000000000000000, 8.000000000000000000 ) ) ;
#6 = LOCAL_TIME ( 10, 33, 16.00000000000000000, #109 ) ;
#7 = FACE_OUTER_BOUND ( 'NONE', #74, .T. ) ;
#8 = EDGE_LOOP ( 'NONE', ( #200 ) ) ;
#9 = CARTESIAN_POINT ( 'NONE',  ( 3.444704358586563510E-14, -1.500000000000000444, 9.866025403784433934 ) ) ;
#10 = CARTESIAN_POINT ( 'NONE',  ( -2.137935315286761602E-31, 7.498867633981223393E-33, -6.123290110423860221E-17 ) ) ;
#11 = APPROVAL_PERSON_ORGANIZATION ( #171, #79, #23 ) ;
#12 = DIRECTION ( 'NONE',  ( 0.0000000000000000000, -1.000000000000000000, 0.0000000000000000000 ) ) ;
#13 = CC_DESIGN_PERSON_AND_ORGANIZATION_ASSIGNMENT ( #138, #215, ( #165 ) ) ;
#14 = AXIS2_PLACEMENT_3D ( 'NONE', #61, #65, #24 ) ;
#15 = PERSON_AND_ORGANIZATION_ROLE ( 'classification_officer' ) ;
#16 = ADVANCED_FACE ( 'NONE', ( #185, #131 ), #180, .T. ) ;
#17 = VERTEX_POINT ( 'NONE', #211 ) ;
#18 = CARTESIAN_POINT ( 'NONE',  ( 4.094901095205113395E-31, -3.841940660073961603E-32, 1.172826287126001781E-16 ) ) ;
#19 = CIRCLE ( 'NONE', #156, 0.9999999999999988898 ) ;
#20 = DIRECTION ( 'NONE',  ( 3.491481338843133355E-15, -1.276467311168695266E-16, 1.000000000000000000 ) ) ;
#21 = DIRECTION ( 'NONE',  ( 0.0000000000000000000, -1.000000000000000000, 0.0000000000000000000 ) ) ;
#22 = ORIENTED_EDGE ( 'NONE', *, *, #88, .F. ) ;
#23 = APPROVAL_ROLE ( '' ) ;
#24 = DIRECTION ( 'NONE',  ( 0.0000000000000000000, 1.000000000000000000, 0.0000000000000000000 ) ) ;
#25 = FACE_OUTER_BOUND ( 'NONE', #103, .T. ) ;
#26 = CALENDAR_DATE ( 2021, 8, 12 ) ;
#27 = CALENDAR_DATE ( 2021, 8, 12 ) ;
#28 = CIRCLE ( 'NONE', #14, 1.500000000000000888 ) ;
#29 = ORIENTED_EDGE ( 'NONE', *, *, #137, .F. ) ;
#30 = DIRECTION ( 'NONE',  ( 3.491481338843133355E-15, -1.224646799147353207E-16, 1.000000000000000000 ) ) ;
#31 = CIRCLE ( 'NONE', #81, 0.9999999999999986677 ) ;
#32 = ORIENTED_EDGE ( 'NONE', *, *, #217, .T. ) ;
#33 = DIRECTION ( 'NONE',  ( -4.275831445896958607E-31, -1.000000000000000000, -1.224646799147353207E-16 ) ) ;
#34 = MANIFOLD_SOLID_BREP ( 'Corps-Déplacer/Copier1[1]', #76 ) ;
#35 = DIRECTION ( 'NONE',  ( -3.491481338843133355E-15, 1.224646799147353207E-16, -1.000000000000000000 ) ) ;
#36 = AXIS2_PLACEMENT_3D ( 'NONE', #101, #153, #169 ) ;
#37 = PLANE ( 'NONE',  #2 ) ;
#38 = CARTESIAN_POINT ( 'NONE',  ( -6.413839710158237013E-31, 0.0000000000000000000, -1.836996703606440502E-16 ) ) ;
#39 = DIRECTION ( 'NONE',  ( -4.275831445896958607E-31, -1.000000000000000000, -1.224646799147353207E-16 ) ) ;
#40 = DIRECTION ( 'NONE',  ( 1.000000000000000000, 0.0000000000000000000, 0.0000000000000000000 ) ) ;
#41 =( NAMED_UNIT ( * ) SI_UNIT ( $, .STERADIAN. ) SOLID_ANGLE_UNIT ( ) );
#42 = PERSON_AND_ORGANIZATION ( #181, #213 ) ;
#43 = CC_DESIGN_APPROVAL ( #79, ( #165 ) ) ;
#44 = CC_DESIGN_PERSON_AND_ORGANIZATION_ASSIGNMENT ( #201, #141, ( #90 ) ) ;
#45 = ORIENTED_EDGE ( 'NONE', *, *, #217, .F. ) ;
#46 = AXIS2_PLACEMENT_3D ( 'NONE', #97, #166, #214 ) ;
#47 = PLANE ( 'NONE',  #46 ) ;
#48 = CARTESIAN_POINT ( 'NONE',  ( 0.0000000000000000000, 0.0000000000000000000, 0.0000000000000000000 ) ) ;
#49 = DIRECTION ( 'NONE',  ( -3.491481338843133355E-15, 1.224646799147353207E-16, -1.000000000000000000 ) ) ;
#50 =( LENGTH_UNIT ( ) NAMED_UNIT ( * ) SI_UNIT ( .MILLI., .METRE. ) );
#51 = DIRECTION ( 'NONE',  ( -3.491481338843133355E-15, 1.276467311168695266E-16, -1.000000000000000000 ) ) ;
#52 = DATE_AND_TIME ( #151, #144 ) ;
#53 = PERSON_AND_ORGANIZATION_ROLE ( 'design_supplier' ) ;
#54 = DATE_TIME_ROLE ( 'classification_date' ) ;
#55 = APPROVAL_PERSON_ORGANIZATION ( #66, #161, #216 ) ;
#56 = ORIENTED_EDGE ( 'NONE', *, *, #178, .F. ) ;
#57 = APPROVAL_PERSON_ORGANIZATION ( #199, #120, #69 ) ;
#58 = CARTESIAN_POINT ( 'NONE',  ( 2.793185071074506684E-14, -1.021173848934956212E-15, 8.000000000000000000 ) ) ;
#59 = FACE_OUTER_BOUND ( 'NONE', #162, .T. ) ;
#60 = PLANE ( 'NONE',  #36 ) ;
#61 = CARTESIAN_POINT ( 'NONE',  ( 1.316288464743861212E-13, -4.616918432785521081E-15, 37.69999999999999574 ) ) ;
#62 = CARTESIAN_POINT ( 'NONE',  ( 2.793185071074506684E-14, -1.000000000000000000, 8.000000000000000000 ) ) ;
#63 = DIRECTION ( 'NONE',  ( 3.491481338843133355E-15, -1.224646799147353207E-16, 1.000000000000000000 ) ) ;
#64 = COORDINATED_UNIVERSAL_TIME_OFFSET ( 1, 0, .AHEAD. ) ;
#65 = DIRECTION ( 'NONE',  ( -3.491481338843133355E-15, 1.224646799147353207E-16, -1.000000000000000000 ) ) ;
#66 = PERSON_AND_ORGANIZATION ( #181, #213 ) ;
#67 = PERSON_AND_ORGANIZATION ( #181, #213 ) ;
#68 = PERSON_AND_ORGANIZATION_ROLE ( 'design_owner' ) ;
#69 = APPROVAL_ROLE ( '' ) ;
#70 = ADVANCED_FACE ( 'NONE', ( #212 ), #60, .F. ) ;
#71 = AXIS2_PLACEMENT_3D ( 'NONE', #167, #20, #12 ) ;
#72 = DATE_AND_TIME ( #27, #134 ) ;
#73 = DATE_AND_TIME ( #158, #124 ) ;
#74 = EDGE_LOOP ( 'NONE', ( #92 ) ) ;
#75 = CC_DESIGN_DATE_AND_TIME_ASSIGNMENT ( #223, #54, ( #173 ) ) ;
#76 = CLOSED_SHELL ( 'NONE', ( #128, #98, #70, #16, #194 ) ) ;
#77 = AXIS2_PLACEMENT_3D ( 'NONE', #38, #133, #172 ) ;
#78 = APPLICATION_CONTEXT ( 'configuration controlled 3d designs of mechanical parts and assemblies' ) ;
#79 = APPROVAL ( #83, 'UNSPECIFIED' ) ;
#80 = DIRECTION ( 'NONE',  ( 3.491481338843133355E-15, -1.276467311168695266E-16, 1.000000000000000000 ) ) ;
#81 = AXIS2_PLACEMENT_3D ( 'NONE', #18, #80, #147 ) ;
#82 = FACE_BOUND ( 'NONE', #8, .T. ) ;
#83 = APPROVAL_STATUS ( 'not_yet_approved' ) ;
#84 = DIRECTION ( 'NONE',  ( 0.0000000000000000000, 1.000000000000000000, 0.0000000000000000000 ) ) ;
#85 = DATE_AND_TIME ( #26, #115 ) ;
#86 = VERTEX_POINT ( 'NONE', #155 ) ;
#87 = CC_DESIGN_SECURITY_CLASSIFICATION ( #173, ( #90 ) ) ;
#88 = EDGE_CURVE ( 'NONE', #86, #86, #28, .T. ) ;
#89 = COORDINATED_UNIVERSAL_TIME_OFFSET ( 1, 0, .AHEAD. ) ;
#90 = PRODUCT_DEFINITION_FORMATION_WITH_SPECIFIED_SOURCE ( 'ANY', '', #160, .NOT_KNOWN. ) ;
#91 = APPROVAL_STATUS ( 'not_yet_approved' ) ;
#92 = ORIENTED_EDGE ( 'NONE', *, *, #88, .T. ) ;
#93 = AXIS2_PLACEMENT_3D ( 'NONE', #58, #100, #135 ) ;
#94 = CC_DESIGN_PERSON_AND_ORGANIZATION_ASSIGNMENT ( #67, #68, ( #160 ) ) ;
#95 = EDGE_LOOP ( 'NONE', ( #207 ) ) ;
#96 = CARTESIAN_POINT ( 'NONE',  ( 3.444704358586563510E-14, -1.259365891909075479E-15, 9.866025403784433934 ) ) ;
#97 = CARTESIAN_POINT ( 'NONE',  ( 2.793185071074506684E-14, 1.124819836996389785E-32, 8.000000000000000000 ) ) ;
#98 = ADVANCED_FACE ( 'NONE', ( #25, #82 ), #193, .T. ) ;
#99 = AXIS2_PLACEMENT_3D ( 'NONE', #174, #221, #40 ) ;
#100 = DIRECTION ( 'NONE',  ( 3.491481338843133355E-15, -1.276467311168695266E-16, 1.000000000000000000 ) ) ;
#101 = CARTESIAN_POINT ( 'NONE',  ( 1.326762908760390423E-13, 8.998558695971085435E-33, 38.00000000000000000 ) ) ;
#102 = CARTESIAN_POINT ( 'NONE',  ( 2.793185071074506684E-14, 1.124819836996389785E-32, 8.000000000000000000 ) ) ;
#103 = EDGE_LOOP ( 'NONE', ( #22 ) ) ;
#104 = APPLICATION_PROTOCOL_DEFINITION ( 'international standard', 'config_control_design', 1994, #78 ) ;
#105 = AXIS2_PLACEMENT_3D ( 'NONE', #10, #63, #39 ) ;
#106 = MECHANICAL_CONTEXT ( 'NONE', #78, 'mechanical' ) ;
#107 = SECURITY_CLASSIFICATION_LEVEL ( 'unclassified' ) ;
#108 = DESIGN_CONTEXT ( 'detailed design', #195, 'design' ) ;
#109 = COORDINATED_UNIVERSAL_TIME_OFFSET ( 1, 0, .AHEAD. ) ;
#110 = VERTEX_POINT ( 'NONE', #177 ) ;
#111 = ADVANCED_FACE ( 'NONE', ( #116 ), #189, .F. ) ;
#112 = ORIENTED_EDGE ( 'NONE', *, *, #122, .F. ) ;
#113 = CYLINDRICAL_SURFACE ( 'NONE', #77, 0.9999999999999986677 ) ;
#114 = VERTEX_POINT ( 'NONE', #62 ) ;
#115 = LOCAL_TIME ( 10, 33, 16.00000000000000000, #192 ) ;
#116 = FACE_OUTER_BOUND ( 'NONE', #163, .T. ) ;
#117 = APPLICATION_PROTOCOL_DEFINITION ( 'international standard', 'config_control_design', 1994, #195 ) ;
#118 = DIRECTION ( 'NONE',  ( 4.275831445896958607E-31, 1.000000000000000000, 1.224646799147353454E-16 ) ) ;
#119 = ADVANCED_FACE ( 'NONE', ( #136 ), #47, .T. ) ;
#120 = APPROVAL ( #91, 'UNSPECIFIED' ) ;
#121 = CIRCLE ( 'NONE', #196, 1.200000000000001288 ) ;
#122 = EDGE_CURVE ( 'NONE', #110, #110, #31, .T. ) ;
#123 = APPROVAL_DATE_TIME ( #52, #79 ) ;
#124 = LOCAL_TIME ( 10, 33, 16.00000000000000000, #89 ) ;
#125 = COORDINATED_UNIVERSAL_TIME_OFFSET ( 1, 0, .AHEAD. ) ;
#126 = EDGE_LOOP ( 'NONE', ( #145 ) ) ;
#127 = CC_DESIGN_APPROVAL ( #161, ( #90 ) ) ;
#128 = ADVANCED_FACE ( 'NONE', ( #7, #59 ), #209, .T. ) ;
#129 = EDGE_LOOP ( 'NONE', ( #56 ) ) ;
#130 = DIRECTION ( 'NONE',  ( -3.491481338843133355E-15, 1.224646799147353207E-16, -1.000000000000000000 ) ) ;
#131 = FACE_OUTER_BOUND ( 'NONE', #184, .T. ) ;
#132 = FACE_OUTER_BOUND ( 'NONE', #126, .T. ) ;
#133 = DIRECTION ( 'NONE',  ( 3.491481338843133355E-15, -1.276467311168695266E-16, 1.000000000000000000 ) ) ;
#134 = LOCAL_TIME ( 10, 33, 16.00000000000000000, #125 ) ;
#135 = DIRECTION ( 'NONE',  ( 0.0000000000000000000, -1.000000000000000000, 0.0000000000000000000 ) ) ;
#136 = FACE_OUTER_BOUND ( 'NONE', #95, .T. ) ;
#137 = EDGE_CURVE ( 'NONE', #17, #17, #121, .T. ) ;
#138 = PERSON_AND_ORGANIZATION ( #181, #213 ) ;
#139 = APPROVAL_STATUS ( 'not_yet_approved' ) ;
#140 = PRODUCT_DEFINITION_SHAPE ( 'NONE', 'NONE',  #165 ) ;
#141 = PERSON_AND_ORGANIZATION_ROLE ( 'creator' ) ;
#142 = SHAPE_DEFINITION_REPRESENTATION ( #140, #149 ) ;
#143 = CALENDAR_DATE ( 2021, 8, 12 ) ;
#144 = LOCAL_TIME ( 10, 33, 16.00000000000000000, #64 ) ;
#145 = ORIENTED_EDGE ( 'NONE', *, *, #122, .T. ) ;
#146 = EDGE_LOOP ( 'NONE', ( #3 ) ) ;
#147 = DIRECTION ( 'NONE',  ( -4.456761796588770537E-31, -1.000000000000000000, -1.276467311168695266E-16 ) ) ;
#148 = CC_DESIGN_DATE_AND_TIME_ASSIGNMENT ( #85, #154, ( #165 ) ) ;
#149 = ADVANCED_BREP_SHAPE_REPRESENTATION ( '372636', ( #34, #176, #99 ), #202 ) ;
#150 = PRODUCT_RELATED_PRODUCT_CATEGORY ( 'detail', '', ( #160 ) ) ;
#151 = CALENDAR_DATE ( 2021, 8, 12 ) ;
#152 = CARTESIAN_POINT ( 'NONE',  ( 1.326762908760390423E-13, -4.653657836759941941E-15, 38.00000000000000000 ) ) ;
#153 = DIRECTION ( 'NONE',  ( -3.491481338843133355E-15, 1.224646799147353207E-16, -1.000000000000000000 ) ) ;
#154 = DATE_TIME_ROLE ( 'creation_date' ) ;
#155 = CARTESIAN_POINT ( 'NONE',  ( 1.316288464743861212E-13, 1.499999999999996447, 37.69999999999999574 ) ) ;
#156 = AXIS2_PLACEMENT_3D ( 'NONE', #210, #182, #21 ) ;
#157 = PERSON_AND_ORGANIZATION ( #181, #213 ) ;
#158 = CALENDAR_DATE ( 2021, 8, 12 ) ;
#159 = AXIS2_PLACEMENT_3D ( 'NONE', #48, #35, #118 ) ;
#160 = PRODUCT ( '372636', '372636', '', ( #106 ) ) ;
#161 = APPROVAL ( #139, 'UNSPECIFIED' ) ;
#162 = EDGE_LOOP ( 'NONE', ( #45 ) ) ;
#163 = EDGE_LOOP ( 'NONE', ( #112 ) ) ;
#164 = FACE_OUTER_BOUND ( 'NONE', #146, .T. ) ;
#165 = PRODUCT_DEFINITION ( 'UNKNOWN', '', #90, #108 ) ;
#166 = DIRECTION ( 'NONE',  ( 3.491481338843133355E-15, -1.224646799147353207E-16, 1.000000000000000000 ) ) ;
#167 = CARTESIAN_POINT ( 'NONE',  ( 9.308377946195078733E-14, -3.403094278676150455E-15, 26.66025403784433223 ) ) ;
#168 = CIRCLE ( 'NONE', #219, 1.499999999999999112 ) ;
#169 = DIRECTION ( 'NONE',  ( 4.275831445896958607E-31, 1.000000000000000000, 1.224646799147353207E-16 ) ) ;
#170 = FACE_OUTER_BOUND ( 'NONE', #129, .T. ) ;
#171 = PERSON_AND_ORGANIZATION ( #181, #213 ) ;
#172 = DIRECTION ( 'NONE',  ( -4.456761796588771413E-31, -1.000000000000000000, -1.276467311168695019E-16 ) ) ;
#173 = SECURITY_CLASSIFICATION ( '', '', #107 ) ;
#174 = CARTESIAN_POINT ( 'NONE',  ( 0.0000000000000000000, 0.0000000000000000000, 0.0000000000000000000 ) ) ;
#175 =( NAMED_UNIT ( * ) PLANE_ANGLE_UNIT ( ) SI_UNIT ( $, .RADIAN. ) );
#176 = MANIFOLD_SOLID_BREP ( 'Corps-Déplacer/Copier1[2]', #220 ) ;
#177 = CARTESIAN_POINT ( 'NONE',  ( -3.618607013836511207E-32, -0.9999999999999986677, -1.036410240426918204E-17 ) ) ;
#178 = EDGE_CURVE ( 'NONE', #204, #204, #206, .T. ) ;
#179 = EDGE_LOOP ( 'NONE', ( #203 ) ) ;
#180 = CONICAL_SURFACE ( 'NONE', #71, 5.999999999999999112, 0.2617993877991501850 ) ;
#181 = PERSON ( 'UNSPECIFIED', 'UNSPECIFIED', 'UNSPECIFIED', ('UNSPECIFIED'), ('UNSPECIFIED'), ('UNSPECIFIED') ) ;
#182 = DIRECTION ( 'NONE',  ( 3.491481338843133355E-15, -1.276467311168695266E-16, 1.000000000000000000 ) ) ;
#183 = EDGE_CURVE ( 'NONE', #114, #114, #19, .T. ) ;
#184 = EDGE_LOOP ( 'NONE', ( #32 ) ) ;
#185 = FACE_BOUND ( 'NONE', #179, .T. ) ;
#186 = CC_DESIGN_PERSON_AND_ORGANIZATION_ASSIGNMENT ( #42, #53, ( #90 ) ) ;
#187 = CC_DESIGN_APPROVAL ( #120, ( #173 ) ) ;
#188 = CC_DESIGN_PERSON_AND_ORGANIZATION_ASSIGNMENT ( #157, #15, ( #173 ) ) ;
#189 = PLANE ( 'NONE',  #105 ) ;
#190 = VERTEX_POINT ( 'NONE', #9 ) ;
#191 = CARTESIAN_POINT ( 'NONE',  ( 1.326762908760390423E-13, -4.653657836759941941E-15, 38.00000000000000000 ) ) ;
#192 = COORDINATED_UNIVERSAL_TIME_OFFSET ( 1, 0, .AHEAD. ) ;
#193 = CONICAL_SURFACE ( 'NONE', #205, 1.200000000000001288, 0.7853981633974450594 ) ;
#194 = ADVANCED_FACE ( 'NONE', ( #164 ), #37, .F. ) ;
#195 = APPLICATION_CONTEXT ( 'configuration controlled 3d designs of mechanical parts and assemblies' ) ;
#196 = AXIS2_PLACEMENT_3D ( 'NONE', #191, #130, #208 ) ;
#197 = UNCERTAINTY_MEASURE_WITH_UNIT (LENGTH_MEASURE( 1.000000000000000082E-05 ), #50, 'distance_accuracy_value', 'NONE');
#198 = APPROVAL_DATE_TIME ( #72, #120 ) ;
#199 = PERSON_AND_ORGANIZATION ( #181, #213 ) ;
#200 = ORIENTED_EDGE ( 'NONE', *, *, #137, .T. ) ;
#201 = PERSON_AND_ORGANIZATION ( #181, #213 ) ;
#202 =( GEOMETRIC_REPRESENTATION_CONTEXT ( 3 ) GLOBAL_UNCERTAINTY_ASSIGNED_CONTEXT ( ( #197 ) ) GLOBAL_UNIT_ASSIGNED_CONTEXT ( ( #50, #175, #41 ) ) REPRESENTATION_CONTEXT ( 'NONE', 'WORKASPACE' ) );
#203 = ORIENTED_EDGE ( 'NONE', *, *, #183, .T. ) ;
#204 = VERTEX_POINT ( 'NONE', #5 ) ;
#205 = AXIS2_PLACEMENT_3D ( 'NONE', #152, #49, #84 ) ;
#206 = CIRCLE ( 'NONE', #93, 0.9999999999999988898 ) ;
#207 = ORIENTED_EDGE ( 'NONE', *, *, #178, .T. ) ;
#208 = DIRECTION ( 'NONE',  ( 0.0000000000000000000, 1.000000000000000000, 0.0000000000000000000 ) ) ;
#209 = CYLINDRICAL_SURFACE ( 'NONE', #159, 1.499999999999999112 ) ;
#210 = CARTESIAN_POINT ( 'NONE',  ( 2.793185071074506684E-14, -1.021173848934956212E-15, 8.000000000000000000 ) ) ;
#211 = CARTESIAN_POINT ( 'NONE',  ( 1.326762908760390423E-13, 1.199999999999996625, 38.00000000000000000 ) ) ;
#212 = FACE_OUTER_BOUND ( 'NONE', #1, .T. ) ;
#213 = ORGANIZATION ( 'UNSPECIFIED', 'UNSPECIFIED', '' ) ;
#214 = DIRECTION ( 'NONE',  ( -4.275831445896958607E-31, -1.000000000000000000, -1.224646799147353207E-16 ) ) ;
#215 = PERSON_AND_ORGANIZATION_ROLE ( 'creator' ) ;
#216 = APPROVAL_ROLE ( '' ) ;
#217 = EDGE_CURVE ( 'NONE', #190, #190, #168, .T. ) ;
#218 = DIRECTION ( 'NONE',  ( 0.0000000000000000000, -1.000000000000000000, 0.0000000000000000000 ) ) ;
#219 = AXIS2_PLACEMENT_3D ( 'NONE', #96, #51, #218 ) ;
#220 = CLOSED_SHELL ( 'NONE', ( #119, #4, #111 ) ) ;
#221 = DIRECTION ( 'NONE',  ( 0.0000000000000000000, 0.0000000000000000000, 1.000000000000000000 ) ) ;
#222 = APPROVAL_DATE_TIME ( #73, #161 ) ;
#223 = DATE_AND_TIME ( #143, #6 ) ;
ENDSEC;
END-ISO-10303-21;
