ISO-10303-21;
HEADER;
FILE_DESCRIPTION (( 'STEP AP203' ),
    '1' );
FILE_NAME ('372635.step',
    '2021-12-08T09:33:16',
    ( '' ),
    ( '' ),
    'SwSTEP 2.0',
    'SolidWorks 2019',
    '' );
FILE_SCHEMA (( 'CONFIG_CONTROL_DESIGN' ));
ENDSEC;

DATA;
#1 = DIRECTION ( 'NONE',  ( 4.275831445896958607E-31, 1.000000000000000000, 1.224646799147353207E-16 ) ) ;
#2 = PLANE ( 'NONE',  #153 ) ;
#3 = ADVANCED_FACE ( 'NONE', ( #169 ), #79, .F. ) ;
#4 = DESIGN_CONTEXT ( 'detailed design', #161, 'design' ) ;
#5 = CIRCLE ( 'NONE', #53, 0.9999999999999937828 ) ;
#6 = CC_DESIGN_PERSON_AND_ORGANIZATION_ASSIGNMENT ( #180, #195, ( #118 ) ) ;
#7 = COORDINATED_UNIVERSAL_TIME_OFFSET ( 1, 0, .AHEAD. ) ;
#8 = APPROVAL_PERSON_ORGANIZATION ( #78, #193, #95 ) ;
#9 = SECURITY_CLASSIFICATION_LEVEL ( 'unclassified' ) ;
#10 = CALENDAR_DATE ( 2021, 8, 12 ) ;
#11 = PERSON_AND_ORGANIZATION ( #71, #72 ) ;
#12 = ADVANCED_FACE ( 'NONE', ( #173, #144 ), #51, .T. ) ;
#13 = DIRECTION ( 'NONE',  ( -3.491481338843133355E-15, 1.224646799147353207E-16, -1.000000000000000000 ) ) ;
#14 = CYLINDRICAL_SURFACE ( 'NONE', #44, 0.9999999999999931166 ) ;
#15 = CC_DESIGN_SECURITY_CLASSIFICATION ( #93, ( #116 ) ) ;
#16 = CARTESIAN_POINT ( 'NONE',  ( 2.793185071074506684E-14, 7.498798913309223722E-33, 8.000000000000000000 ) ) ;
#17 = CARTESIAN_POINT ( 'NONE',  ( -6.413801023170361023E-31, 2.249658563547172145E-32, -1.836985623212727344E-16 ) ) ;
#18 = AXIS2_PLACEMENT_3D ( 'NONE', #132, #134, #38 ) ;
#19 = DIRECTION ( 'NONE',  ( 0.0000000000000000000, 0.0000000000000000000, 1.000000000000000000 ) ) ;
#20 = PRODUCT_DEFINITION_SHAPE ( 'NONE', 'NONE',  #41 ) ;
#21 = EDGE_LOOP ( 'NONE', ( #166 ) ) ;
#22 = APPROVAL_STATUS ( 'not_yet_approved' ) ;
#23 = APPROVAL_DATE_TIME ( #196, #190 ) ;
#24 = EDGE_LOOP ( 'NONE', ( #124 ) ) ;
#25 = AXIS2_PLACEMENT_3D ( 'NONE', #121, #19, #188 ) ;
#26 = ADVANCED_FACE ( 'NONE', ( #83, #147 ), #146, .T. ) ;
#27 = PERSON_AND_ORGANIZATION ( #71, #72 ) ;
#28 = EDGE_LOOP ( 'NONE', ( #156 ) ) ;
#29 = PERSON_AND_ORGANIZATION ( #71, #72 ) ;
#30 = DIRECTION ( 'NONE',  ( -3.491481338843133355E-15, 1.224646799147353207E-16, -1.000000000000000000 ) ) ;
#31 = MANIFOLD_SOLID_BREP ( 'Corps-Déplacer/Copier1[2]', #160 ) ;
#32 = MANIFOLD_SOLID_BREP ( 'Corps-Déplacer/Copier1[1]', #194 ) ;
#33 = APPROVAL_PERSON_ORGANIZATION ( #11, #34, #141 ) ;
#34 = APPROVAL ( #76, 'UNSPECIFIED' ) ;
#35 = DIRECTION ( 'NONE',  ( 3.491481338843133355E-15, -1.224646799147353207E-16, 1.000000000000000000 ) ) ;
#36 = FACE_OUTER_BOUND ( 'NONE', #68, .T. ) ;
#37 = CIRCLE ( 'NONE', #149, 0.9999999999999937828 ) ;
#38 = DIRECTION ( 'NONE',  ( -4.275831445896958607E-31, -1.000000000000000000, -1.224646799147353207E-16 ) ) ;
#39 =( NAMED_UNIT ( * ) SI_UNIT ( $, .STERADIAN. ) SOLID_ANGLE_UNIT ( ) );
#40 = CARTESIAN_POINT ( 'NONE',  ( 2.793185071074506684E-14, -9.797174393178825657E-16, 8.000000000000000000 ) ) ;
#41 = PRODUCT_DEFINITION ( 'UNKNOWN', '', #116, #4 ) ;
#42 = VERTEX_POINT ( 'NONE', #123 ) ;
#43 = PERSON_AND_ORGANIZATION_ROLE ( 'creator' ) ;
#44 = AXIS2_PLACEMENT_3D ( 'NONE', #80, #49, #145 ) ;
#45 = DATE_AND_TIME ( #10, #101 ) ;
#46 = EDGE_LOOP ( 'NONE', ( #55 ) ) ;
#47 = APPROVAL_STATUS ( 'not_yet_approved' ) ;
#48 = EDGE_CURVE ( 'NONE', #138, #138, #57, .T. ) ;
#49 = DIRECTION ( 'NONE',  ( -3.491481338843133355E-15, 1.224646799147353207E-16, -1.000000000000000000 ) ) ;
#50 = DIRECTION ( 'NONE',  ( 4.275831445896958607E-31, 1.000000000000000000, 1.224646799147353207E-16 ) ) ;
#51 = CYLINDRICAL_SURFACE ( 'NONE', #77, 0.9999999999999947820 ) ;
#52 = CC_DESIGN_PERSON_AND_ORGANIZATION_ASSIGNMENT ( #27, #43, ( #41 ) ) ;
#53 = AXIS2_PLACEMENT_3D ( 'NONE', #127, #30, #183 ) ;
#54 = APPROVAL_PERSON_ORGANIZATION ( #29, #190, #152 ) ;
#55 = ORIENTED_EDGE ( 'NONE', *, *, #120, .T. ) ;
#56 = UNCERTAINTY_MEASURE_WITH_UNIT (LENGTH_MEASURE( 1.000000000000000082E-05 ), #174, 'distance_accuracy_value', 'NONE');
#57 = CIRCLE ( 'NONE', #128, 0.9999999999999961142 ) ;
#58 = PERSON_AND_ORGANIZATION ( #71, #72 ) ;
#59 = EDGE_LOOP ( 'NONE', ( #96 ) ) ;
#60 = AXIS2_PLACEMENT_3D ( 'NONE', #130, #129, #50 ) ;
#61 = CALENDAR_DATE ( 2021, 8, 12 ) ;
#62 = CIRCLE ( 'NONE', #88, 0.7999999999999963807 ) ;
#63 = DIRECTION ( 'NONE',  ( -3.491481338843133355E-15, 1.224646799147353207E-16, -1.000000000000000000 ) ) ;
#64 = CARTESIAN_POINT ( 'NONE',  ( 0.0000000000000000000, 0.0000000000000000000, 0.0000000000000000000 ) ) ;
#65 = PLANE ( 'NONE',  #18 ) ;
#66 = CC_DESIGN_APPROVAL ( #34, ( #41 ) ) ;
#67 = DIRECTION ( 'NONE',  ( -3.491481338843133355E-15, 1.224646799147353207E-16, -1.000000000000000000 ) ) ;
#68 = EDGE_LOOP ( 'NONE', ( #111 ) ) ;
#69 = EDGE_CURVE ( 'NONE', #191, #191, #5, .T. ) ;
#70 = CALENDAR_DATE ( 2021, 8, 12 ) ;
#71 = PERSON ( 'UNSPECIFIED', 'UNSPECIFIED', 'UNSPECIFIED', ('UNSPECIFIED'), ('UNSPECIFIED'), ('UNSPECIFIED') ) ;
#72 = ORGANIZATION ( 'UNSPECIFIED', 'UNSPECIFIED', '' ) ;
#73 = DATE_AND_TIME ( #61, #177 ) ;
#74 = PERSON_AND_ORGANIZATION ( #71, #72 ) ;
#75 = ADVANCED_BREP_SHAPE_REPRESENTATION ( '372635', ( #32, #31, #25 ), #81 ) ;
#76 = APPROVAL_STATUS ( 'not_yet_approved' ) ;
#77 = AXIS2_PLACEMENT_3D ( 'NONE', #64, #97, #1 ) ;
#78 = PERSON_AND_ORGANIZATION ( #71, #72 ) ;
#79 = PLANE ( 'NONE',  #113 ) ;
#80 = CARTESIAN_POINT ( 'NONE',  ( 0.0000000000000000000, 0.0000000000000000000, 0.0000000000000000000 ) ) ;
#81 =( GEOMETRIC_REPRESENTATION_CONTEXT ( 3 ) GLOBAL_UNCERTAINTY_ASSIGNED_CONTEXT ( ( #56 ) ) GLOBAL_UNIT_ASSIGNED_CONTEXT ( ( #174, #104, #39 ) ) REPRESENTATION_CONTEXT ( 'NONE', 'WORKASPACE' ) );
#82 = DIRECTION ( 'NONE',  ( -4.275831445896958607E-31, -1.000000000000000000, -1.224646799147353207E-16 ) ) ;
#83 = FACE_OUTER_BOUND ( 'NONE', #21, .T. ) ;
#84 = DIRECTION ( 'NONE',  ( 4.275831445896958607E-31, 1.000000000000000000, 1.224646799147353207E-16 ) ) ;
#85 = ADVANCED_FACE ( 'NONE', ( #114 ), #187, .F. ) ;
#86 = ORIENTED_EDGE ( 'NONE', *, *, #182, .F. ) ;
#87 = DIRECTION ( 'NONE',  ( 0.0000000000000000000, 1.000000000000000000, 0.0000000000000000000 ) ) ;
#88 = AXIS2_PLACEMENT_3D ( 'NONE', #151, #67, #87 ) ;
#89 = VERTEX_POINT ( 'NONE', #192 ) ;
#90 = CARTESIAN_POINT ( 'NONE',  ( 1.040461438975253740E-13, 0.9999999999999924505, 29.80000000000000071 ) ) ;
#91 = PERSON_AND_ORGANIZATION_ROLE ( 'classification_officer' ) ;
#92 = SHAPE_DEFINITION_REPRESENTATION ( #20, #75 ) ;
#93 = SECURITY_CLASSIFICATION ( '', '', #9 ) ;
#94 = DATE_AND_TIME ( #70, #163 ) ;
#95 = APPROVAL_ROLE ( '' ) ;
#96 = ORIENTED_EDGE ( 'NONE', *, *, #182, .T. ) ;
#97 = DIRECTION ( 'NONE',  ( -3.491481338843133355E-15, 1.224646799147353207E-16, -1.000000000000000000 ) ) ;
#98 = DIRECTION ( 'NONE',  ( 0.0000000000000000000, 1.000000000000000000, 0.0000000000000000000 ) ) ;
#99 = CC_DESIGN_DATE_AND_TIME_ASSIGNMENT ( #94, #139, ( #41 ) ) ;
#100 = CARTESIAN_POINT ( 'NONE',  ( 1.047444401652940007E-13, -3.673940397442059178E-15, 30.00000000000000000 ) ) ;
#101 = LOCAL_TIME ( 10, 33, 16.00000000000000000, #154 ) ;
#102 = DIRECTION ( 'NONE',  ( 0.0000000000000000000, 1.000000000000000000, 0.0000000000000000000 ) ) ;
#103 = CARTESIAN_POINT ( 'NONE',  ( 1.047444401652940007E-13, 0.7999999999999927169, 30.00000000000000000 ) ) ;
#104 =( NAMED_UNIT ( * ) PLANE_ANGLE_UNIT ( ) SI_UNIT ( $, .RADIAN. ) );
#105 = APPROVAL_DATE_TIME ( #45, #34 ) ;
#106 = PERSON_AND_ORGANIZATION_ROLE ( 'creator' ) ;
#107 = CC_DESIGN_APPROVAL ( #190, ( #93 ) ) ;
#108 = EDGE_LOOP ( 'NONE', ( #135 ) ) ;
#109 = CC_DESIGN_DATE_AND_TIME_ASSIGNMENT ( #197, #181, ( #93 ) ) ;
#110 = MECHANICAL_CONTEXT ( 'NONE', #142, 'mechanical' ) ;
#111 = ORIENTED_EDGE ( 'NONE', *, *, #120, .F. ) ;
#112 = ORIENTED_EDGE ( 'NONE', *, *, #69, .T. ) ;
#113 = AXIS2_PLACEMENT_3D ( 'NONE', #16, #35, #82 ) ;
#114 = FACE_OUTER_BOUND ( 'NONE', #140, .T. ) ;
#115 = DIRECTION ( 'NONE',  ( -3.491481338843133355E-15, 1.224646799147353207E-16, -1.000000000000000000 ) ) ;
#116 = PRODUCT_DEFINITION_FORMATION_WITH_SPECIFIED_SOURCE ( 'ANY', '', #118, .NOT_KNOWN. ) ;
#117 = ADVANCED_FACE ( 'NONE', ( #158 ), #2, .F. ) ;
#118 = PRODUCT ( '372635', '372635', '', ( #110 ) ) ;
#119 = APPLICATION_PROTOCOL_DEFINITION ( 'international standard', 'config_control_design', 1994, #142 ) ;
#120 = EDGE_CURVE ( 'NONE', #42, #42, #170, .T. ) ;
#121 = CARTESIAN_POINT ( 'NONE',  ( 0.0000000000000000000, 0.0000000000000000000, 0.0000000000000000000 ) ) ;
#122 = CALENDAR_DATE ( 2021, 8, 12 ) ;
#123 = CARTESIAN_POINT ( 'NONE',  ( -2.137969577273433508E-31, 0.9999999999999926725, -6.123388240653830118E-17 ) ) ;
#124 = ORIENTED_EDGE ( 'NONE', *, *, #186, .T. ) ;
#125 = CC_DESIGN_PERSON_AND_ORGANIZATION_ASSIGNMENT ( #58, #126, ( #116 ) ) ;
#126 = PERSON_AND_ORGANIZATION_ROLE ( 'design_supplier' ) ;
#127 = CARTESIAN_POINT ( 'NONE',  ( 2.793185071074506684E-14, -9.797174393178825657E-16, 8.000000000000000000 ) ) ;
#128 = AXIS2_PLACEMENT_3D ( 'NONE', #172, #63, #98 ) ;
#129 = DIRECTION ( 'NONE',  ( -3.491481338843133355E-15, 1.224646799147353207E-16, -1.000000000000000000 ) ) ;
#130 = CARTESIAN_POINT ( 'NONE',  ( 1.047444401652940007E-13, 5.999039130647347640E-33, 30.00000000000000000 ) ) ;
#131 = DIRECTION ( 'NONE',  ( -4.275831445896958607E-31, -1.000000000000000000, -1.224646799147353207E-16 ) ) ;
#132 = CARTESIAN_POINT ( 'NONE',  ( 2.793185071074506684E-14, 7.498798913309223722E-33, 8.000000000000000000 ) ) ;
#133 = EDGE_LOOP ( 'NONE', ( #112 ) ) ;
#134 = DIRECTION ( 'NONE',  ( 3.491481338843133355E-15, -1.224646799147353207E-16, 1.000000000000000000 ) ) ;
#135 = ORIENTED_EDGE ( 'NONE', *, *, #48, .T. ) ;
#136 = DIRECTION ( 'NONE',  ( -3.491481338843133355E-15, 1.224646799147353207E-16, -1.000000000000000000 ) ) ;
#137 = CARTESIAN_POINT ( 'NONE',  ( 2.793185071074506684E-14, 0.9999999999999926725, 8.000000000000000000 ) ) ;
#138 = VERTEX_POINT ( 'NONE', #90 ) ;
#139 = DATE_TIME_ROLE ( 'creation_date' ) ;
#140 = EDGE_LOOP ( 'NONE', ( #86 ) ) ;
#141 = APPROVAL_ROLE ( '' ) ;
#142 = APPLICATION_CONTEXT ( 'configuration controlled 3d designs of mechanical parts and assemblies' ) ;
#143 = PERSON_AND_ORGANIZATION ( #71, #72 ) ;
#144 = FACE_OUTER_BOUND ( 'NONE', #108, .T. ) ;
#145 = DIRECTION ( 'NONE',  ( 4.275831445896958607E-31, 1.000000000000000000, 1.224646799147353207E-16 ) ) ;
#146 = CONICAL_SURFACE ( 'NONE', #199, 0.7999999999999963807, 0.7853981633974507215 ) ;
#147 = FACE_BOUND ( 'NONE', #59, .T. ) ;
#148 = FACE_OUTER_BOUND ( 'NONE', #165, .T. ) ;
#149 = AXIS2_PLACEMENT_3D ( 'NONE', #40, #136, #102 ) ;
#150 = CC_DESIGN_PERSON_AND_ORGANIZATION_ASSIGNMENT ( #74, #91, ( #93 ) ) ;
#151 = CARTESIAN_POINT ( 'NONE',  ( 1.047444401652940007E-13, -3.673940397442059178E-15, 30.00000000000000000 ) ) ;
#152 = APPROVAL_ROLE ( '' ) ;
#153 = AXIS2_PLACEMENT_3D ( 'NONE', #185, #184, #131 ) ;
#154 = COORDINATED_UNIVERSAL_TIME_OFFSET ( 1, 0, .AHEAD. ) ;
#155 = APPROVAL_DATE_TIME ( #73, #193 ) ;
#156 = ORIENTED_EDGE ( 'NONE', *, *, #186, .F. ) ;
#157 = ADVANCED_FACE ( 'NONE', ( #36, #159 ), #14, .T. ) ;
#158 = FACE_OUTER_BOUND ( 'NONE', #46, .T. ) ;
#159 = FACE_OUTER_BOUND ( 'NONE', #133, .T. ) ;
#160 = CLOSED_SHELL ( 'NONE', ( #117, #157, #176 ) ) ;
#161 = APPLICATION_CONTEXT ( 'configuration controlled 3d designs of mechanical parts and assemblies' ) ;
#162 = CC_DESIGN_PERSON_AND_ORGANIZATION_ASSIGNMENT ( #143, #106, ( #116 ) ) ;
#163 = LOCAL_TIME ( 10, 33, 16.00000000000000000, #167 ) ;
#164 = CALENDAR_DATE ( 2021, 8, 12 ) ;
#165 = EDGE_LOOP ( 'NONE', ( #198 ) ) ;
#166 = ORIENTED_EDGE ( 'NONE', *, *, #48, .F. ) ;
#167 = COORDINATED_UNIVERSAL_TIME_OFFSET ( 1, 0, .AHEAD. ) ;
#168 = PRODUCT_RELATED_PRODUCT_CATEGORY ( 'detail', '', ( #118 ) ) ;
#169 = FACE_OUTER_BOUND ( 'NONE', #24, .T. ) ;
#170 = CIRCLE ( 'NONE', #171, 0.9999999999999926725 ) ;
#171 = AXIS2_PLACEMENT_3D ( 'NONE', #17, #115, #84 ) ;
#172 = CARTESIAN_POINT ( 'NONE',  ( 1.040461438975253740E-13, -3.649447461459112464E-15, 29.80000000000000071 ) ) ;
#173 = FACE_OUTER_BOUND ( 'NONE', #28, .T. ) ;
#174 =( LENGTH_UNIT ( ) NAMED_UNIT ( * ) SI_UNIT ( .MILLI., .METRE. ) );
#175 = CC_DESIGN_APPROVAL ( #193, ( #116 ) ) ;
#176 = ADVANCED_FACE ( 'NONE', ( #148 ), #65, .T. ) ;
#177 = LOCAL_TIME ( 10, 33, 16.00000000000000000, #201 ) ;
#178 = APPLICATION_PROTOCOL_DEFINITION ( 'international standard', 'config_control_design', 1994, #161 ) ;
#179 = VERTEX_POINT ( 'NONE', #103 ) ;
#180 = PERSON_AND_ORGANIZATION ( #71, #72 ) ;
#181 = DATE_TIME_ROLE ( 'classification_date' ) ;
#182 = EDGE_CURVE ( 'NONE', #179, #179, #62, .T. ) ;
#183 = DIRECTION ( 'NONE',  ( 0.0000000000000000000, 1.000000000000000000, 0.0000000000000000000 ) ) ;
#184 = DIRECTION ( 'NONE',  ( 3.491481338843133355E-15, -1.224646799147353207E-16, 1.000000000000000000 ) ) ;
#185 = CARTESIAN_POINT ( 'NONE',  ( -3.206900511585180511E-31, 1.124829281773586072E-32, -9.184928116063636722E-17 ) ) ;
#186 = EDGE_CURVE ( 'NONE', #89, #89, #37, .T. ) ;
#187 = PLANE ( 'NONE',  #60 ) ;
#188 = DIRECTION ( 'NONE',  ( 1.000000000000000000, 0.0000000000000000000, 0.0000000000000000000 ) ) ;
#189 = LOCAL_TIME ( 10, 33, 16.00000000000000000, #7 ) ;
#190 = APPROVAL ( #47, 'UNSPECIFIED' ) ;
#191 = VERTEX_POINT ( 'NONE', #137 ) ;
#192 = CARTESIAN_POINT ( 'NONE',  ( 2.793185071074506684E-14, 0.9999999999999926725, 8.000000000000000000 ) ) ;
#193 = APPROVAL ( #22, 'UNSPECIFIED' ) ;
#194 = CLOSED_SHELL ( 'NONE', ( #3, #12, #26, #85 ) ) ;
#195 = PERSON_AND_ORGANIZATION_ROLE ( 'design_owner' ) ;
#196 = DATE_AND_TIME ( #164, #189 ) ;
#197 = DATE_AND_TIME ( #122, #203 ) ;
#198 = ORIENTED_EDGE ( 'NONE', *, *, #69, .F. ) ;
#199 = AXIS2_PLACEMENT_3D ( 'NONE', #100, #13, #202 ) ;
#200 = COORDINATED_UNIVERSAL_TIME_OFFSET ( 1, 0, .AHEAD. ) ;
#201 = COORDINATED_UNIVERSAL_TIME_OFFSET ( 1, 0, .AHEAD. ) ;
#202 = DIRECTION ( 'NONE',  ( 0.0000000000000000000, 1.000000000000000000, 0.0000000000000000000 ) ) ;
#203 = LOCAL_TIME ( 10, 33, 16.00000000000000000, #200 ) ;
ENDSEC;
END-ISO-10303-21;
