ISO-10303-21;
HEADER;
FILE_DESCRIPTION (( 'STEP AP203' ),
    '1' );
FILE_NAME ('372634.step',
    '2021-12-08T09:33:15',
    ( '' ),
    ( '' ),
    'SwSTEP 2.0',
    'SolidWorks 2019',
    '' );
FILE_SCHEMA (( 'CONFIG_CONTROL_DESIGN' ));
ENDSEC;

DATA;
#1 = AXIS2_PLACEMENT_3D ( 'NONE', #74, #36, #196 ) ;
#2 = SECURITY_CLASSIFICATION_LEVEL ( 'unclassified' ) ;
#3 = DIRECTION ( 'NONE',  ( -4.275831445896958607E-31, -1.000000000000000000, -1.224646799147353207E-16 ) ) ;
#4 = CALENDAR_DATE ( 2021, 8, 12 ) ;
#5 = PERSON_AND_ORGANIZATION ( #6, #17 ) ;
#6 = PERSON ( 'UNSPECIFIED', 'UNSPECIFIED', 'UNSPECIFIED', ('UNSPECIFIED'), ('UNSPECIFIED'), ('UNSPECIFIED') ) ;
#7 = LOCAL_TIME ( 10, 33, 15.00000000000000000, #178 ) ;
#8 = ORIENTED_EDGE ( 'NONE', *, *, #88, .T. ) ;
#9 = CARTESIAN_POINT ( 'NONE',  ( 2.793185071074506684E-14, 1.124819836996388143E-32, 8.000000000000000000 ) ) ;
#10 = VERTEX_POINT ( 'NONE', #151 ) ;
#11 = CARTESIAN_POINT ( 'NONE',  ( 2.793185071074506684E-14, 1.124819836996388143E-32, 8.000000000000000000 ) ) ;
#12 = EDGE_LOOP ( 'NONE', ( #87 ) ) ;
#13 = EDGE_CURVE ( 'NONE', #10, #10, #140, .T. ) ;
#14 = EDGE_LOOP ( 'NONE', ( #190 ) ) ;
#15 = APPROVAL_PERSON_ORGANIZATION ( #124, #180, #197 ) ;
#16 = CC_DESIGN_APPROVAL ( #80, ( #175 ) ) ;
#17 = ORGANIZATION ( 'UNSPECIFIED', 'UNSPECIFIED', '' ) ;
#18 = APPROVAL_ROLE ( '' ) ;
#19 = DATE_TIME_ROLE ( 'creation_date' ) ;
#20 = CIRCLE ( 'NONE', #209, 0.7499999999999992228 ) ;
#21 = CC_DESIGN_PERSON_AND_ORGANIZATION_ASSIGNMENT ( #72, #126, ( #106 ) ) ;
#22 = CARTESIAN_POINT ( 'NONE',  ( 0.0000000000000000000, 0.0000000000000000000, 0.0000000000000000000 ) ) ;
#23 = CARTESIAN_POINT ( 'NONE',  ( 2.935478058384978288E-31, -0.7499999999999997780, 8.407543313284951002E-17 ) ) ;
#24 = PERSON_AND_ORGANIZATION ( #6, #17 ) ;
#25 = FACE_OUTER_BOUND ( 'NONE', #30, .T. ) ;
#26 = DIRECTION ( 'NONE',  ( 3.491481338843133355E-15, -1.224646799147353207E-16, 1.000000000000000000 ) ) ;
#27 = FACE_OUTER_BOUND ( 'NONE', #223, .T. ) ;
#28 = LOCAL_TIME ( 10, 33, 15.00000000000000000, #179 ) ;
#29 = FACE_OUTER_BOUND ( 'NONE', #67, .T. ) ;
#30 = EDGE_LOOP ( 'NONE', ( #148 ) ) ;
#31 = FACE_BOUND ( 'NONE', #130, .T. ) ;
#32 = UNCERTAINTY_MEASURE_WITH_UNIT (LENGTH_MEASURE( 1.000000000000000082E-05 ), #153, 'distance_accuracy_value', 'NONE');
#33 = APPROVAL_DATE_TIME ( #107, #180 ) ;
#34 = CYLINDRICAL_SURFACE ( 'NONE', #1, 1.499999999999999112 ) ;
#35 = ADVANCED_FACE ( 'NONE', ( #90 ), #159, .F. ) ;
#36 = DIRECTION ( 'NONE',  ( -3.491481338843133355E-15, 1.224646799147353207E-16, -1.000000000000000000 ) ) ;
#37 = PERSON_AND_ORGANIZATION_ROLE ( 'creator' ) ;
#38 = DIRECTION ( 'NONE',  ( -3.491481338843133355E-15, 1.224646799147353207E-16, -1.000000000000000000 ) ) ;
#39 = AXIS2_PLACEMENT_3D ( 'NONE', #110, #94, #3 ) ;
#40 = CARTESIAN_POINT ( 'NONE',  ( -6.413839710158237013E-31, 0.0000000000000000000, -1.836996703606440502E-16 ) ) ;
#41 = APPLICATION_PROTOCOL_DEFINITION ( 'international standard', 'config_control_design', 1994, #207 ) ;
#42 = ORIENTED_EDGE ( 'NONE', *, *, #13, .F. ) ;
#43 = CARTESIAN_POINT ( 'NONE',  ( 2.793185071074506684E-14, -0.7500000000000002220, 8.000000000000000000 ) ) ;
#44 = CYLINDRICAL_SURFACE ( 'NONE', #120, 0.7499999999999995559 ) ;
#45 = DIRECTION ( 'NONE',  ( 0.0000000000000000000, 1.000000000000000000, 0.0000000000000000000 ) ) ;
#46 = PLANE ( 'NONE',  #181 ) ;
#47 = VERTEX_POINT ( 'NONE', #23 ) ;
#48 = FACE_OUTER_BOUND ( 'NONE', #12, .T. ) ;
#49 = CARTESIAN_POINT ( 'NONE',  ( 6.278049405826555534E-31, -4.640088260904266954E-32, 1.798104814705016303E-16 ) ) ;
#50 = EDGE_CURVE ( 'NONE', #221, #221, #70, .T. ) ;
#51 = EDGE_LOOP ( 'NONE', ( #157 ) ) ;
#52 = AXIS2_PLACEMENT_3D ( 'NONE', #11, #205, #64 ) ;
#53 = AXIS2_PLACEMENT_3D ( 'NONE', #131, #111, #127 ) ;
#54 = ADVANCED_FACE ( 'NONE', ( #164, #123 ), #34, .T. ) ;
#55 = DATE_TIME_ROLE ( 'classification_date' ) ;
#56 = DATE_AND_TIME ( #144, #69 ) ;
#57 = PRODUCT_RELATED_PRODUCT_CATEGORY ( 'detail', '', ( #104 ) ) ;
#58 = CARTESIAN_POINT ( 'NONE',  ( 2.094888803305880013E-13, -7.347880794884118356E-15, 60.00000000000000000 ) ) ;
#59 = AXIS2_PLACEMENT_3D ( 'NONE', #9, #26, #135 ) ;
#60 = ORIENTED_EDGE ( 'NONE', *, *, #50, .F. ) ;
#61 = VERTEX_POINT ( 'NONE', #183 ) ;
#62 = APPROVAL_PERSON_ORGANIZATION ( #92, #80, #18 ) ;
#63 = AXIS2_PLACEMENT_3D ( 'NONE', #22, #78, #147 ) ;
#64 = DIRECTION ( 'NONE',  ( -4.275831445896958607E-31, -1.000000000000000000, -1.224646799147353207E-16 ) ) ;
#65 = ORIENTED_EDGE ( 'NONE', *, *, #97, .F. ) ;
#66 = PRODUCT_DEFINITION_SHAPE ( 'NONE', 'NONE',  #137 ) ;
#67 = EDGE_LOOP ( 'NONE', ( #217 ) ) ;
#68 = APPLICATION_CONTEXT ( 'configuration controlled 3d designs of mechanical parts and assemblies' ) ;
#69 = LOCAL_TIME ( 10, 33, 15.00000000000000000, #91 ) ;
#70 = CIRCLE ( 'NONE', #134, 1.200000000000002842 ) ;
#71 = CC_DESIGN_PERSON_AND_ORGANIZATION_ASSIGNMENT ( #95, #165, ( #104 ) ) ;
#72 = PERSON_AND_ORGANIZATION ( #6, #17 ) ;
#73 = PERSON_AND_ORGANIZATION ( #6, #17 ) ;
#74 = CARTESIAN_POINT ( 'NONE',  ( 0.0000000000000000000, 0.0000000000000000000, 0.0000000000000000000 ) ) ;
#75 = COORDINATED_UNIVERSAL_TIME_OFFSET ( 1, 0, .AHEAD. ) ;
#76 = COORDINATED_UNIVERSAL_TIME_OFFSET ( 1, 0, .AHEAD. ) ;
#77 =( NAMED_UNIT ( * ) PLANE_ANGLE_UNIT ( ) SI_UNIT ( $, .RADIAN. ) );
#78 = DIRECTION ( 'NONE',  ( 0.0000000000000000000, 0.0000000000000000000, 1.000000000000000000 ) ) ;
#79 = ORIENTED_EDGE ( 'NONE', *, *, #50, .T. ) ;
#80 = APPROVAL ( #195, 'UNSPECIFIED' ) ;
#81 = CC_DESIGN_APPROVAL ( #180, ( #106 ) ) ;
#82 = ADVANCED_FACE ( 'NONE', ( #48 ), #85, .T. ) ;
#83 = AXIS2_PLACEMENT_3D ( 'NONE', #173, #132, #188 ) ;
#84 = CC_DESIGN_DATE_AND_TIME_ASSIGNMENT ( #210, #55, ( #106 ) ) ;
#85 = PLANE ( 'NONE',  #52 ) ;
#86 = CLOSED_SHELL ( 'NONE', ( #54, #158, #156, #121, #114 ) ) ;
#87 = ORIENTED_EDGE ( 'NONE', *, *, #13, .T. ) ;
#88 = EDGE_CURVE ( 'NONE', #61, #61, #154, .T. ) ;
#89 = CLOSED_SHELL ( 'NONE', ( #82, #193, #35 ) ) ;
#90 = FACE_OUTER_BOUND ( 'NONE', #14, .T. ) ;
#91 = COORDINATED_UNIVERSAL_TIME_OFFSET ( 1, 0, .AHEAD. ) ;
#92 = PERSON_AND_ORGANIZATION ( #6, #17 ) ;
#93 = CONICAL_SURFACE ( 'NONE', #83, 5.749999999999999112, 0.2617993877991501850 ) ;
#94 = DIRECTION ( 'NONE',  ( 3.491481338843133355E-15, -1.224646799147353207E-16, 1.000000000000000000 ) ) ;
#95 = PERSON_AND_ORGANIZATION ( #6, #17 ) ;
#96 = CARTESIAN_POINT ( 'NONE',  ( 2.094888803305880013E-13, -7.347880794884118356E-15, 60.00000000000000000 ) ) ;
#97 = EDGE_CURVE ( 'NONE', #133, #133, #199, .T. ) ;
#98 = PERSON_AND_ORGANIZATION_ROLE ( 'creator' ) ;
#99 = FACE_OUTER_BOUND ( 'NONE', #174, .T. ) ;
#100 = CC_DESIGN_DATE_AND_TIME_ASSIGNMENT ( #109, #19, ( #137 ) ) ;
#101 = CARTESIAN_POINT ( 'NONE',  ( 2.793185071074506684E-14, -1.021173848934956212E-15, 8.000000000000000000 ) ) ;
#102 = ADVANCED_BREP_SHAPE_REPRESENTATION ( '372634', ( #112, #108, #63 ), #218 ) ;
#103 = AXIS2_PLACEMENT_3D ( 'NONE', #49, #204, #118 ) ;
#104 = PRODUCT ( '372634', '372634', '', ( #146 ) ) ;
#105 = EDGE_LOOP ( 'NONE', ( #65 ) ) ;
#106 = SECURITY_CLASSIFICATION ( '', '', #2 ) ;
#107 = DATE_AND_TIME ( #212, #139 ) ;
#108 = MANIFOLD_SOLID_BREP ( 'Corps-Déplacer/Copier1[2]', #89 ) ;
#109 = DATE_AND_TIME ( #4, #7 ) ;
#110 = CARTESIAN_POINT ( 'NONE',  ( -4.275757865223466927E-31, 1.499733974035797301E-32, -1.224625724804874785E-16 ) ) ;
#111 = DIRECTION ( 'NONE',  ( 3.491481338843133355E-15, -1.276467311168695266E-16, 1.000000000000000000 ) ) ;
#112 = MANIFOLD_SOLID_BREP ( 'Corps-Déplacer/Copier1[1]', #86 ) ;
#113 = CALENDAR_DATE ( 2021, 8, 12 ) ;
#114 = ADVANCED_FACE ( 'NONE', ( #25 ), #117, .F. ) ;
#115 =( NAMED_UNIT ( * ) SI_UNIT ( $, .STERADIAN. ) SOLID_ANGLE_UNIT ( ) );
#116 = PERSON_AND_ORGANIZATION ( #6, #17 ) ;
#117 = PLANE ( 'NONE',  #59 ) ;
#118 = DIRECTION ( 'NONE',  ( -4.456761796588770537E-31, -1.000000000000000000, -1.276467311168695266E-16 ) ) ;
#119 = ORIENTED_EDGE ( 'NONE', *, *, #185, .T. ) ;
#120 = AXIS2_PLACEMENT_3D ( 'NONE', #40, #169, #168 ) ;
#121 = ADVANCED_FACE ( 'NONE', ( #170, #136 ), #93, .T. ) ;
#122 = CIRCLE ( 'NONE', #103, 0.7499999999999997780 ) ;
#123 = FACE_OUTER_BOUND ( 'NONE', #105, .T. ) ;
#124 = PERSON_AND_ORGANIZATION ( #6, #17 ) ;
#125 = DIRECTION ( 'NONE',  ( 0.0000000000000000000, 1.000000000000000000, 0.0000000000000000000 ) ) ;
#126 = PERSON_AND_ORGANIZATION_ROLE ( 'classification_officer' ) ;
#127 = DIRECTION ( 'NONE',  ( 0.0000000000000000000, -1.000000000000000000, 0.0000000000000000000 ) ) ;
#128 = CONICAL_SURFACE ( 'NONE', #191, 1.200000000000002842, 0.7853981633974457255 ) ;
#129 = FACE_OUTER_BOUND ( 'NONE', #138, .T. ) ;
#130 = EDGE_LOOP ( 'NONE', ( #79 ) ) ;
#131 = CARTESIAN_POINT ( 'NONE',  ( 2.793185071074506684E-14, -1.021173848934956212E-15, 8.000000000000000000 ) ) ;
#132 = DIRECTION ( 'NONE',  ( 3.491481338843133355E-15, -1.276467311168695266E-16, 1.000000000000000000 ) ) ;
#133 = VERTEX_POINT ( 'NONE', #202 ) ;
#134 = AXIS2_PLACEMENT_3D ( 'NONE', #96, #160, #125 ) ;
#135 = DIRECTION ( 'NONE',  ( -4.275831445896958607E-31, -1.000000000000000000, -1.224646799147353207E-16 ) ) ;
#136 = FACE_OUTER_BOUND ( 'NONE', #51, .T. ) ;
#137 = PRODUCT_DEFINITION ( 'UNKNOWN', '', #175, #192 ) ;
#138 = EDGE_LOOP ( 'NONE', ( #203 ) ) ;
#139 = LOCAL_TIME ( 10, 33, 15.00000000000000000, #75 ) ;
#140 = CIRCLE ( 'NONE', #53, 0.7499999999999992228 ) ;
#141 = CALENDAR_DATE ( 2021, 8, 12 ) ;
#142 = CC_DESIGN_PERSON_AND_ORGANIZATION_ASSIGNMENT ( #73, #37, ( #175 ) ) ;
#143 = EDGE_CURVE ( 'NONE', #47, #47, #122, .T. ) ;
#144 = CALENDAR_DATE ( 2021, 8, 12 ) ;
#145 = DIRECTION ( 'NONE',  ( 0.0000000000000000000, 1.000000000000000000, 0.0000000000000000000 ) ) ;
#146 = MECHANICAL_CONTEXT ( 'NONE', #68, 'mechanical' ) ;
#147 = DIRECTION ( 'NONE',  ( 1.000000000000000000, 0.0000000000000000000, 0.0000000000000000000 ) ) ;
#148 = ORIENTED_EDGE ( 'NONE', *, *, #185, .F. ) ;
#149 = APPROVAL_PERSON_ORGANIZATION ( #116, #214, #184 ) ;
#150 = EDGE_LOOP ( 'NONE', ( #119 ) ) ;
#151 = CARTESIAN_POINT ( 'NONE',  ( 2.793185071074506684E-14, -0.7500000000000002220, 8.000000000000000000 ) ) ;
#152 = DIRECTION ( 'NONE',  ( -3.491481338843133355E-15, 1.224646799147353207E-16, -1.000000000000000000 ) ) ;
#153 =( LENGTH_UNIT ( ) NAMED_UNIT ( * ) SI_UNIT ( .MILLI., .METRE. ) );
#154 = CIRCLE ( 'NONE', #172, 1.500000000000003109 ) ;
#155 = CARTESIAN_POINT ( 'NONE',  ( 3.770464002342590346E-14, -1.378461913396134718E-15, 10.79903810567664557 ) ) ;
#156 = ADVANCED_FACE ( 'NONE', ( #27 ), #46, .F. ) ;
#157 = ORIENTED_EDGE ( 'NONE', *, *, #97, .T. ) ;
#158 = ADVANCED_FACE ( 'NONE', ( #29, #31 ), #128, .T. ) ;
#159 = PLANE ( 'NONE',  #39 ) ;
#160 = DIRECTION ( 'NONE',  ( -3.491481338843133355E-15, 1.224646799147353207E-16, -1.000000000000000000 ) ) ;
#161 = PERSON_AND_ORGANIZATION_ROLE ( 'design_supplier' ) ;
#162 = CC_DESIGN_APPROVAL ( #214, ( #137 ) ) ;
#163 = LOCAL_TIME ( 10, 33, 15.00000000000000000, #76 ) ;
#164 = FACE_OUTER_BOUND ( 'NONE', #201, .T. ) ;
#165 = PERSON_AND_ORGANIZATION_ROLE ( 'design_owner' ) ;
#166 = CARTESIAN_POINT ( 'NONE',  ( 2.094888803305880013E-13, 1.199999999999995515, 60.00000000000000000 ) ) ;
#167 = DATE_AND_TIME ( #113, #163 ) ;
#168 = DIRECTION ( 'NONE',  ( -4.456761796588769661E-31, -1.000000000000000000, -1.276467311168695019E-16 ) ) ;
#169 = DIRECTION ( 'NONE',  ( 3.491481338843133355E-15, -1.276467311168695266E-16, 1.000000000000000000 ) ) ;
#170 = FACE_BOUND ( 'NONE', #150, .T. ) ;
#171 = CARTESIAN_POINT ( 'NONE',  ( 2.094888803305880013E-13, 8.998558695971058066E-33, 60.00000000000000000 ) ) ;
#172 = AXIS2_PLACEMENT_3D ( 'NONE', #189, #152, #45 ) ;
#173 = CARTESIAN_POINT ( 'NONE',  ( 9.308377946195077470E-14, -3.403094278676150060E-15, 26.66025403784432868 ) ) ;
#174 = EDGE_LOOP ( 'NONE', ( #42 ) ) ;
#175 = PRODUCT_DEFINITION_FORMATION_WITH_SPECIFIED_SOURCE ( 'ANY', '', #104, .NOT_KNOWN. ) ;
#176 = DIRECTION ( 'NONE',  ( 4.275831445896958607E-31, 1.000000000000000000, 1.224646799147353207E-16 ) ) ;
#177 = SHAPE_DEFINITION_REPRESENTATION ( #66, #102 ) ;
#178 = COORDINATED_UNIVERSAL_TIME_OFFSET ( 1, 0, .AHEAD. ) ;
#179 = COORDINATED_UNIVERSAL_TIME_OFFSET ( 1, 0, .AHEAD. ) ;
#180 = APPROVAL ( #194, 'UNSPECIFIED' ) ;
#181 = AXIS2_PLACEMENT_3D ( 'NONE', #171, #206, #176 ) ;
#182 = APPROVAL_DATE_TIME ( #167, #214 ) ;
#183 = CARTESIAN_POINT ( 'NONE',  ( 2.084414359289350550E-13, 1.499999999999995781, 59.69999999999999574 ) ) ;
#184 = APPROVAL_ROLE ( '' ) ;
#185 = EDGE_CURVE ( 'NONE', #187, #187, #20, .T. ) ;
#186 = DIRECTION ( 'NONE',  ( -3.491481338843133355E-15, 1.276467311168695266E-16, -1.000000000000000000 ) ) ;
#187 = VERTEX_POINT ( 'NONE', #43 ) ;
#188 = DIRECTION ( 'NONE',  ( 0.0000000000000000000, -1.000000000000000000, 0.0000000000000000000 ) ) ;
#189 = CARTESIAN_POINT ( 'NONE',  ( 2.084414359289350550E-13, -7.311141390909697496E-15, 59.69999999999999574 ) ) ;
#190 = ORIENTED_EDGE ( 'NONE', *, *, #143, .F. ) ;
#191 = AXIS2_PLACEMENT_3D ( 'NONE', #58, #38, #145 ) ;
#192 = DESIGN_CONTEXT ( 'detailed design', #207, 'design' ) ;
#193 = ADVANCED_FACE ( 'NONE', ( #129, #99 ), #44, .T. ) ;
#194 = APPROVAL_STATUS ( 'not_yet_approved' ) ;
#195 = APPROVAL_STATUS ( 'not_yet_approved' ) ;
#196 = DIRECTION ( 'NONE',  ( 4.275831445896958607E-31, 1.000000000000000000, 1.224646799147353454E-16 ) ) ;
#197 = APPROVAL_ROLE ( '' ) ;
#198 = APPROVAL_STATUS ( 'not_yet_approved' ) ;
#199 = CIRCLE ( 'NONE', #208, 1.499999999999999112 ) ;
#200 = DIRECTION ( 'NONE',  ( 0.0000000000000000000, -1.000000000000000000, 0.0000000000000000000 ) ) ;
#201 = EDGE_LOOP ( 'NONE', ( #8 ) ) ;
#202 = CARTESIAN_POINT ( 'NONE',  ( 3.770464002342590346E-14, -1.500000000000000444, 10.79903810567664557 ) ) ;
#203 = ORIENTED_EDGE ( 'NONE', *, *, #143, .T. ) ;
#204 = DIRECTION ( 'NONE',  ( 3.491481338843133355E-15, -1.276467311168695266E-16, 1.000000000000000000 ) ) ;
#205 = DIRECTION ( 'NONE',  ( 3.491481338843133355E-15, -1.224646799147353207E-16, 1.000000000000000000 ) ) ;
#206 = DIRECTION ( 'NONE',  ( -3.491481338843133355E-15, 1.224646799147353207E-16, -1.000000000000000000 ) ) ;
#207 = APPLICATION_CONTEXT ( 'configuration controlled 3d designs of mechanical parts and assemblies' ) ;
#208 = AXIS2_PLACEMENT_3D ( 'NONE', #155, #186, #222 ) ;
#209 = AXIS2_PLACEMENT_3D ( 'NONE', #101, #219, #200 ) ;
#210 = DATE_AND_TIME ( #141, #28 ) ;
#211 = APPROVAL_DATE_TIME ( #56, #80 ) ;
#212 = CALENDAR_DATE ( 2021, 8, 12 ) ;
#213 = CC_DESIGN_PERSON_AND_ORGANIZATION_ASSIGNMENT ( #24, #98, ( #137 ) ) ;
#214 = APPROVAL ( #198, 'UNSPECIFIED' ) ;
#215 = APPLICATION_PROTOCOL_DEFINITION ( 'international standard', 'config_control_design', 1994, #68 ) ;
#216 = CC_DESIGN_SECURITY_CLASSIFICATION ( #106, ( #175 ) ) ;
#217 = ORIENTED_EDGE ( 'NONE', *, *, #88, .F. ) ;
#218 =( GEOMETRIC_REPRESENTATION_CONTEXT ( 3 ) GLOBAL_UNCERTAINTY_ASSIGNED_CONTEXT ( ( #32 ) ) GLOBAL_UNIT_ASSIGNED_CONTEXT ( ( #153, #77, #115 ) ) REPRESENTATION_CONTEXT ( 'NONE', 'WORKASPACE' ) );
#219 = DIRECTION ( 'NONE',  ( 3.491481338843133355E-15, -1.276467311168695266E-16, 1.000000000000000000 ) ) ;
#220 = CC_DESIGN_PERSON_AND_ORGANIZATION_ASSIGNMENT ( #5, #161, ( #175 ) ) ;
#221 = VERTEX_POINT ( 'NONE', #166 ) ;
#222 = DIRECTION ( 'NONE',  ( 0.0000000000000000000, -1.000000000000000000, 0.0000000000000000000 ) ) ;
#223 = EDGE_LOOP ( 'NONE', ( #60 ) ) ;
ENDSEC;
END-ISO-10303-21;
