ISO-10303-21;
HEADER;
FILE_DESCRIPTION (( 'STEP AP203' ),
    '1' );
FILE_NAME ('372633.step',
    '2021-12-08T09:33:14',
    ( '' ),
    ( '' ),
    'SwSTEP 2.0',
    'SolidWorks 2019',
    '' );
FILE_SCHEMA (( 'CONFIG_CONTROL_DESIGN' ));
ENDSEC;

DATA;
#1 = CARTESIAN_POINT ( 'NONE',  ( 1.316288464743861212E-13, -4.616918432785521081E-15, 37.69999999999999574 ) ) ;
#2 = PERSON ( 'UNSPECIFIED', 'UNSPECIFIED', 'UNSPECIFIED', ('UNSPECIFIED'), ('UNSPECIFIED'), ('UNSPECIFIED') ) ;
#3 = APPROVAL_ROLE ( '' ) ;
#4 = ORIENTED_EDGE ( 'NONE', *, *, #33, .T. ) ;
#5 = MECHANICAL_CONTEXT ( 'NONE', #131, 'mechanical' ) ;
#6 = DIRECTION ( 'NONE',  ( -3.491481338843133355E-15, 1.276467311168695266E-16, -1.000000000000000000 ) ) ;
#7 = DIRECTION ( 'NONE',  ( 4.275831445896958607E-31, 1.000000000000000000, 1.224646799147353207E-16 ) ) ;
#8 = DIRECTION ( 'NONE',  ( 0.0000000000000000000, -1.000000000000000000, 0.0000000000000000000 ) ) ;
#9 = CC_DESIGN_PERSON_AND_ORGANIZATION_ASSIGNMENT ( #211, #88, ( #98 ) ) ;
#10 = CC_DESIGN_APPROVAL ( #189, ( #98 ) ) ;
#11 = CC_DESIGN_DATE_AND_TIME_ASSIGNMENT ( #16, #84, ( #60 ) ) ;
#12 = DIRECTION ( 'NONE',  ( -4.275831445896958607E-31, -1.000000000000000000, -1.224646799147353207E-16 ) ) ;
#13 = CC_DESIGN_SECURITY_CLASSIFICATION ( #185, ( #98 ) ) ;
#14 = CIRCLE ( 'NONE', #27, 1.499999999999996003 ) ;
#15 = EDGE_CURVE ( 'NONE', #59, #59, #215, .T. ) ;
#16 = DATE_AND_TIME ( #36, #30 ) ;
#17 = PERSON_AND_ORGANIZATION ( #2, #147 ) ;
#18 = EDGE_LOOP ( 'NONE', ( #4 ) ) ;
#19 = CIRCLE ( 'NONE', #206, 1.199999999999997291 ) ;
#20 = AXIS2_PLACEMENT_3D ( 'NONE', #57, #40, #12 ) ;
#21 = LOCAL_TIME ( 10, 33, 14.00000000000000000, #148 ) ;
#22 = CARTESIAN_POINT ( 'NONE',  ( 2.094888803305880013E-14, 1.124819836996388143E-32, 6.000000000000000000 ) ) ;
#23 = ORIENTED_EDGE ( 'NONE', *, *, #53, .F. ) ;
#24 = EDGE_LOOP ( 'NONE', ( #58 ) ) ;
#25 = CARTESIAN_POINT ( 'NONE',  ( 1.326762908760390423E-13, -4.653657836759941941E-15, 38.00000000000000000 ) ) ;
#26 = VERTEX_POINT ( 'NONE', #92 ) ;
#27 = AXIS2_PLACEMENT_3D ( 'NONE', #69, #6, #38 ) ;
#28 = MANIFOLD_SOLID_BREP ( 'Corps-Déplacer/Copier1[1]', #198 ) ;
#29 = AXIS2_PLACEMENT_3D ( 'NONE', #117, #195, #138 ) ;
#30 = LOCAL_TIME ( 10, 33, 14.00000000000000000, #137 ) ;
#31 = PLANE ( 'NONE',  #222 ) ;
#32 = ORIENTED_EDGE ( 'NONE', *, *, #15, .T. ) ;
#33 = EDGE_CURVE ( 'NONE', #146, #146, #14, .T. ) ;
#34 = DIRECTION ( 'NONE',  ( 3.491481338843133355E-15, -1.276467311168695266E-16, 1.000000000000000000 ) ) ;
#35 = PRODUCT_DEFINITION_SHAPE ( 'NONE', 'NONE',  #60 ) ;
#36 = CALENDAR_DATE ( 2021, 8, 12 ) ;
#37 = FACE_BOUND ( 'NONE', #103, .T. ) ;
#38 = DIRECTION ( 'NONE',  ( 0.0000000000000000000, -1.000000000000000000, 0.0000000000000000000 ) ) ;
#39 = APPROVAL_ROLE ( '' ) ;
#40 = DIRECTION ( 'NONE',  ( 3.491481338843133355E-15, -1.224646799147353207E-16, 1.000000000000000000 ) ) ;
#41 = ADVANCED_FACE ( 'NONE', ( #108, #121 ), #167, .T. ) ;
#42 = CARTESIAN_POINT ( 'NONE',  ( -4.275831158534505967E-31, 1.499759681868677609E-32, -1.224646716843475728E-16 ) ) ;
#43 = EDGE_LOOP ( 'NONE', ( #101 ) ) ;
#44 = ADVANCED_FACE ( 'NONE', ( #142, #214 ), #83, .T. ) ;
#45 = CC_DESIGN_PERSON_AND_ORGANIZATION_ASSIGNMENT ( #200, #70, ( #120 ) ) ;
#46 = LOCAL_TIME ( 10, 33, 14.00000000000000000, #223 ) ;
#47 = CARTESIAN_POINT ( 'NONE',  ( 0.0000000000000000000, 0.0000000000000000000, 0.0000000000000000000 ) ) ;
#48 = COORDINATED_UNIVERSAL_TIME_OFFSET ( 1, 0, .AHEAD. ) ;
#49 = DIRECTION ( 'NONE',  ( -3.491481338843133355E-15, 1.224646799147353207E-16, -1.000000000000000000 ) ) ;
#50 = PERSON_AND_ORGANIZATION_ROLE ( 'classification_officer' ) ;
#51 = APPLICATION_PROTOCOL_DEFINITION ( 'international standard', 'config_control_design', 1994, #104 ) ;
#52 = DIRECTION ( 'NONE',  ( 4.275831445896958607E-31, 1.000000000000000000, 1.224646799147353207E-16 ) ) ;
#53 = EDGE_CURVE ( 'NONE', #171, #171, #207, .T. ) ;
#54 = CARTESIAN_POINT ( 'NONE',  ( 2.094888803305880013E-14, -7.658803867012171593E-16, 6.000000000000000000 ) ) ;
#55 = FACE_OUTER_BOUND ( 'NONE', #43, .T. ) ;
#56 = DESIGN_CONTEXT ( 'detailed design', #104, 'design' ) ;
#57 = CARTESIAN_POINT ( 'NONE',  ( 2.094888803305880013E-14, 1.124819836996388143E-32, 6.000000000000000000 ) ) ;
#58 = ORIENTED_EDGE ( 'NONE', *, *, #81, .F. ) ;
#59 = VERTEX_POINT ( 'NONE', #96 ) ;
#60 = PRODUCT_DEFINITION ( 'UNKNOWN', '', #98, #56 ) ;
#61 = ORIENTED_EDGE ( 'NONE', *, *, #166, .F. ) ;
#62 = AXIS2_PLACEMENT_3D ( 'NONE', #54, #184, #8 ) ;
#63 = DATE_AND_TIME ( #217, #46 ) ;
#64 = AXIS2_PLACEMENT_3D ( 'NONE', #144, #124, #160 ) ;
#65 = APPROVAL_PERSON_ORGANIZATION ( #139, #189, #3 ) ;
#66 = APPROVAL ( #76, 'UNSPECIFIED' ) ;
#67 = DIRECTION ( 'NONE',  ( 0.0000000000000000000, 1.000000000000000000, 0.0000000000000000000 ) ) ;
#68 = PERSON_AND_ORGANIZATION ( #2, #147 ) ;
#69 = CARTESIAN_POINT ( 'NONE',  ( 3.072167734573961150E-14, -1.123168451162394777E-15, 8.799038105676636690 ) ) ;
#70 = PERSON_AND_ORGANIZATION_ROLE ( 'design_owner' ) ;
#71 = CARTESIAN_POINT ( 'NONE',  ( -6.413839710158237013E-31, 0.0000000000000000000, -1.836996703606440502E-16 ) ) ;
#72 = APPROVAL_DATE_TIME ( #164, #177 ) ;
#73 = DIRECTION ( 'NONE',  ( -3.491481338843133355E-15, 1.224646799147353207E-16, -1.000000000000000000 ) ) ;
#74 = FACE_OUTER_BOUND ( 'NONE', #18, .T. ) ;
#75 = PLANE ( 'NONE',  #20 ) ;
#76 = APPROVAL_STATUS ( 'not_yet_approved' ) ;
#77 = ORIENTED_EDGE ( 'NONE', *, *, #15, .F. ) ;
#78 = DIRECTION ( 'NONE',  ( -4.456761796588770537E-31, -1.000000000000000000, -1.276467311168695266E-16 ) ) ;
#79 = CLOSED_SHELL ( 'NONE', ( #221, #44, #208 ) ) ;
#80 = APPROVAL_DATE_TIME ( #209, #189 ) ;
#81 = EDGE_CURVE ( 'NONE', #128, #128, #169, .T. ) ;
#82 = PERSON_AND_ORGANIZATION ( #2, #147 ) ;
#83 = CYLINDRICAL_SURFACE ( 'NONE', #107, 0.7499999999999995559 ) ;
#84 = DATE_TIME_ROLE ( 'creation_date' ) ;
#85 = DIRECTION ( 'NONE',  ( -4.275831445896958607E-31, -1.000000000000000000, -1.224646799147353207E-16 ) ) ;
#86 = CARTESIAN_POINT ( 'NONE',  ( 0.0000000000000000000, 0.0000000000000000000, 0.0000000000000000000 ) ) ;
#87 = EDGE_LOOP ( 'NONE', ( #61 ) ) ;
#88 = PERSON_AND_ORGANIZATION_ROLE ( 'creator' ) ;
#89 = EDGE_LOOP ( 'NONE', ( #157 ) ) ;
#90 = ADVANCED_FACE ( 'NONE', ( #106 ), #31, .F. ) ;
#91 = FACE_OUTER_BOUND ( 'NONE', #129, .T. ) ;
#92 = CARTESIAN_POINT ( 'NONE',  ( 2.935478058384978288E-31, -0.7499999999999997780, 8.407543313284951002E-17 ) ) ;
#93 = UNCERTAINTY_MEASURE_WITH_UNIT (LENGTH_MEASURE( 1.000000000000000082E-05 ), #190, 'distance_accuracy_value', 'NONE');
#94 = ADVANCED_BREP_SHAPE_REPRESENTATION ( '372633', ( #28, #191, #132 ), #219 ) ;
#95 = APPROVAL_PERSON_ORGANIZATION ( #17, #66, #39 ) ;
#96 = CARTESIAN_POINT ( 'NONE',  ( 2.094888803305880013E-14, -0.7500000000000002220, 6.000000000000000000 ) ) ;
#97 = AXIS2_PLACEMENT_3D ( 'NONE', #210, #111, #165 ) ;
#98 = PRODUCT_DEFINITION_FORMATION_WITH_SPECIFIED_SOURCE ( 'ANY', '', #120, .NOT_KNOWN. ) ;
#99 = EDGE_LOOP ( 'NONE', ( #218 ) ) ;
#100 = CIRCLE ( 'NONE', #159, 0.7499999999999997780 ) ;
#101 = ORIENTED_EDGE ( 'NONE', *, *, #81, .T. ) ;
#102 = CALENDAR_DATE ( 2021, 8, 12 ) ;
#103 = EDGE_LOOP ( 'NONE', ( #151 ) ) ;
#104 = APPLICATION_CONTEXT ( 'configuration controlled 3d designs of mechanical parts and assemblies' ) ;
#105 = AXIS2_PLACEMENT_3D ( 'NONE', #22, #183, #85 ) ;
#106 = FACE_OUTER_BOUND ( 'NONE', #87, .T. ) ;
#107 = AXIS2_PLACEMENT_3D ( 'NONE', #71, #34, #113 ) ;
#108 = FACE_OUTER_BOUND ( 'NONE', #176, .T. ) ;
#109 = COORDINATED_UNIVERSAL_TIME_OFFSET ( 1, 0, .AHEAD. ) ;
#110 = CC_DESIGN_DATE_AND_TIME_ASSIGNMENT ( #63, #116, ( #185 ) ) ;
#111 = DIRECTION ( 'NONE',  ( 3.491481338843133355E-15, -1.276467311168695266E-16, 1.000000000000000000 ) ) ;
#112 = APPROVAL_ROLE ( '' ) ;
#113 = DIRECTION ( 'NONE',  ( -4.456761796588769661E-31, -1.000000000000000000, -1.276467311168695019E-16 ) ) ;
#114 =( NAMED_UNIT ( * ) SI_UNIT ( $, .STERADIAN. ) SOLID_ANGLE_UNIT ( ) );
#115 = EDGE_LOOP ( 'NONE', ( #163 ) ) ;
#116 = DATE_TIME_ROLE ( 'classification_date' ) ;
#117 = CARTESIAN_POINT ( 'NONE',  ( 8.610081678426449537E-14, -3.147800816442411106E-15, 24.66025403784432868 ) ) ;
#118 = DIRECTION ( 'NONE',  ( 0.0000000000000000000, 0.0000000000000000000, 1.000000000000000000 ) ) ;
#119 = DIRECTION ( 'NONE',  ( -3.491481338843133355E-15, 1.224646799147353207E-16, -1.000000000000000000 ) ) ;
#120 = PRODUCT ( '372633', '372633', '', ( #5 ) ) ;
#121 = FACE_OUTER_BOUND ( 'NONE', #115, .T. ) ;
#122 = CC_DESIGN_PERSON_AND_ORGANIZATION_ASSIGNMENT ( #143, #199, ( #60 ) ) ;
#123 = FACE_OUTER_BOUND ( 'NONE', #188, .T. ) ;
#124 = DIRECTION ( 'NONE',  ( -3.491481338843133355E-15, 1.224646799147353207E-16, -1.000000000000000000 ) ) ;
#125 = ADVANCED_FACE ( 'NONE', ( #123, #37 ), #135, .T. ) ;
#126 = CARTESIAN_POINT ( 'NONE',  ( 2.094888803305880013E-14, -0.7500000000000002220, 6.000000000000000000 ) ) ;
#127 = AXIS2_PLACEMENT_3D ( 'NONE', #42, #168, #152 ) ;
#128 = VERTEX_POINT ( 'NONE', #126 ) ;
#129 = EDGE_LOOP ( 'NONE', ( #77 ) ) ;
#130 = SHAPE_DEFINITION_REPRESENTATION ( #35, #94 ) ;
#131 = APPLICATION_CONTEXT ( 'configuration controlled 3d designs of mechanical parts and assemblies' ) ;
#132 = AXIS2_PLACEMENT_3D ( 'NONE', #86, #118, #162 ) ;
#133 = LOCAL_TIME ( 10, 33, 14.00000000000000000, #109 ) ;
#134 = AXIS2_PLACEMENT_3D ( 'NONE', #1, #73, #181 ) ;
#135 = CONICAL_SURFACE ( 'NONE', #64, 1.199999999999997291, 0.7853981633974457255 ) ;
#136 = PERSON_AND_ORGANIZATION_ROLE ( 'design_supplier' ) ;
#137 = COORDINATED_UNIVERSAL_TIME_OFFSET ( 1, 0, .AHEAD. ) ;
#138 = DIRECTION ( 'NONE',  ( 0.0000000000000000000, -1.000000000000000000, 0.0000000000000000000 ) ) ;
#139 = PERSON_AND_ORGANIZATION ( #2, #147 ) ;
#140 = FACE_OUTER_BOUND ( 'NONE', #89, .T. ) ;
#141 = APPROVAL_STATUS ( 'not_yet_approved' ) ;
#142 = FACE_OUTER_BOUND ( 'NONE', #99, .T. ) ;
#143 = PERSON_AND_ORGANIZATION ( #2, #147 ) ;
#144 = CARTESIAN_POINT ( 'NONE',  ( 1.326762908760390423E-13, -4.653657836759941941E-15, 38.00000000000000000 ) ) ;
#145 = CARTESIAN_POINT ( 'NONE',  ( 3.072167734573961150E-14, -1.499999999999996891, 8.799038105676636690 ) ) ;
#146 = VERTEX_POINT ( 'NONE', #145 ) ;
#147 = ORGANIZATION ( 'UNSPECIFIED', 'UNSPECIFIED', '' ) ;
#148 = COORDINATED_UNIVERSAL_TIME_OFFSET ( 1, 0, .AHEAD. ) ;
#149 = PLANE ( 'NONE',  #127 ) ;
#150 = APPROVAL_DATE_TIME ( #153, #66 ) ;
#151 = ORIENTED_EDGE ( 'NONE', *, *, #166, .T. ) ;
#152 = DIRECTION ( 'NONE',  ( -4.275831445896958607E-31, -1.000000000000000000, -1.224646799147353207E-16 ) ) ;
#153 = DATE_AND_TIME ( #172, #21 ) ;
#154 = CONICAL_SURFACE ( 'NONE', #29, 5.750000000000000000, 0.2617993877991502405 ) ;
#155 = CC_DESIGN_PERSON_AND_ORGANIZATION_ASSIGNMENT ( #68, #136, ( #98 ) ) ;
#156 =( NAMED_UNIT ( * ) PLANE_ANGLE_UNIT ( ) SI_UNIT ( $, .RADIAN. ) );
#157 = ORIENTED_EDGE ( 'NONE', *, *, #216, .F. ) ;
#158 = PERSON_AND_ORGANIZATION ( #2, #147 ) ;
#159 = AXIS2_PLACEMENT_3D ( 'NONE', #173, #220, #78 ) ;
#160 = DIRECTION ( 'NONE',  ( 0.0000000000000000000, 1.000000000000000000, 0.0000000000000000000 ) ) ;
#161 = EDGE_LOOP ( 'NONE', ( #32 ) ) ;
#162 = DIRECTION ( 'NONE',  ( 1.000000000000000000, 0.0000000000000000000, 0.0000000000000000000 ) ) ;
#163 = ORIENTED_EDGE ( 'NONE', *, *, #33, .F. ) ;
#164 = DATE_AND_TIME ( #102, #187 ) ;
#165 = DIRECTION ( 'NONE',  ( 0.0000000000000000000, -1.000000000000000000, 0.0000000000000000000 ) ) ;
#166 = EDGE_CURVE ( 'NONE', #202, #202, #19, .T. ) ;
#167 = CYLINDRICAL_SURFACE ( 'NONE', #180, 1.499999999999996003 ) ;
#168 = DIRECTION ( 'NONE',  ( 3.491481338843133355E-15, -1.224646799147353207E-16, 1.000000000000000000 ) ) ;
#169 = CIRCLE ( 'NONE', #62, 0.7499999999999994449 ) ;
#170 = ADVANCED_FACE ( 'NONE', ( #91 ), #179, .F. ) ;
#171 = VERTEX_POINT ( 'NONE', #205 ) ;
#172 = CALENDAR_DATE ( 2021, 8, 12 ) ;
#173 = CARTESIAN_POINT ( 'NONE',  ( 6.278049405826555534E-31, -4.640088260904266954E-32, 1.798104814705016303E-16 ) ) ;
#174 = ADVANCED_FACE ( 'NONE', ( #196, #74 ), #154, .T. ) ;
#175 = APPROVAL_STATUS ( 'not_yet_approved' ) ;
#176 = EDGE_LOOP ( 'NONE', ( #197 ) ) ;
#177 = APPROVAL ( #141, 'UNSPECIFIED' ) ;
#178 = APPROVAL_PERSON_ORGANIZATION ( #82, #177, #112 ) ;
#179 = PLANE ( 'NONE',  #105 ) ;
#180 = AXIS2_PLACEMENT_3D ( 'NONE', #47, #119, #7 ) ;
#181 = DIRECTION ( 'NONE',  ( 0.0000000000000000000, 1.000000000000000000, 0.0000000000000000000 ) ) ;
#182 = CALENDAR_DATE ( 2021, 8, 12 ) ;
#183 = DIRECTION ( 'NONE',  ( 3.491481338843133355E-15, -1.224646799147353207E-16, 1.000000000000000000 ) ) ;
#184 = DIRECTION ( 'NONE',  ( 3.491481338843133355E-15, -1.276467311168695266E-16, 1.000000000000000000 ) ) ;
#185 = SECURITY_CLASSIFICATION ( '', '', #213 ) ;
#186 = CARTESIAN_POINT ( 'NONE',  ( 1.326762908760390423E-13, 1.199999999999992628, 38.00000000000000000 ) ) ;
#187 = LOCAL_TIME ( 10, 33, 14.00000000000000000, #48 ) ;
#188 = EDGE_LOOP ( 'NONE', ( #23 ) ) ;
#189 = APPROVAL ( #175, 'UNSPECIFIED' ) ;
#190 =( LENGTH_UNIT ( ) NAMED_UNIT ( * ) SI_UNIT ( .MILLI., .METRE. ) );
#191 = MANIFOLD_SOLID_BREP ( 'Corps-Déplacer/Copier1[2]', #79 ) ;
#192 = CC_DESIGN_APPROVAL ( #66, ( #185 ) ) ;
#193 = CC_DESIGN_PERSON_AND_ORGANIZATION_ASSIGNMENT ( #158, #50, ( #185 ) ) ;
#194 = APPLICATION_PROTOCOL_DEFINITION ( 'international standard', 'config_control_design', 1994, #131 ) ;
#195 = DIRECTION ( 'NONE',  ( 3.491481338843133355E-15, -1.276467311168695266E-16, 1.000000000000000000 ) ) ;
#196 = FACE_BOUND ( 'NONE', #161, .T. ) ;
#197 = ORIENTED_EDGE ( 'NONE', *, *, #53, .T. ) ;
#198 = CLOSED_SHELL ( 'NONE', ( #41, #125, #90, #174, #170 ) ) ;
#199 = PERSON_AND_ORGANIZATION_ROLE ( 'creator' ) ;
#200 = PERSON_AND_ORGANIZATION ( #2, #147 ) ;
#201 = DIRECTION ( 'NONE',  ( -3.491481338843133355E-15, 1.224646799147353207E-16, -1.000000000000000000 ) ) ;
#202 = VERTEX_POINT ( 'NONE', #186 ) ;
#203 = CC_DESIGN_APPROVAL ( #177, ( #60 ) ) ;
#204 = PRODUCT_RELATED_PRODUCT_CATEGORY ( 'detail', '', ( #120 ) ) ;
#205 = CARTESIAN_POINT ( 'NONE',  ( 1.316288464743861212E-13, 1.499999999999992895, 37.69999999999999574 ) ) ;
#206 = AXIS2_PLACEMENT_3D ( 'NONE', #25, #201, #67 ) ;
#207 = CIRCLE ( 'NONE', #134, 1.499999999999997335 ) ;
#208 = ADVANCED_FACE ( 'NONE', ( #140 ), #149, .F. ) ;
#209 = DATE_AND_TIME ( #182, #133 ) ;
#210 = CARTESIAN_POINT ( 'NONE',  ( 2.094888803305880013E-14, -7.658803867012171593E-16, 6.000000000000000000 ) ) ;
#211 = PERSON_AND_ORGANIZATION ( #2, #147 ) ;
#212 = CARTESIAN_POINT ( 'NONE',  ( 1.326762908760390423E-13, 8.998558695971058066E-33, 38.00000000000000000 ) ) ;
#213 = SECURITY_CLASSIFICATION_LEVEL ( 'unclassified' ) ;
#214 = FACE_OUTER_BOUND ( 'NONE', #24, .T. ) ;
#215 = CIRCLE ( 'NONE', #97, 0.7499999999999994449 ) ;
#216 = EDGE_CURVE ( 'NONE', #26, #26, #100, .T. ) ;
#217 = CALENDAR_DATE ( 2021, 8, 12 ) ;
#218 = ORIENTED_EDGE ( 'NONE', *, *, #216, .T. ) ;
#219 =( GEOMETRIC_REPRESENTATION_CONTEXT ( 3 ) GLOBAL_UNCERTAINTY_ASSIGNED_CONTEXT ( ( #93 ) ) GLOBAL_UNIT_ASSIGNED_CONTEXT ( ( #190, #156, #114 ) ) REPRESENTATION_CONTEXT ( 'NONE', 'WORKASPACE' ) );
#220 = DIRECTION ( 'NONE',  ( 3.491481338843133355E-15, -1.276467311168695266E-16, 1.000000000000000000 ) ) ;
#221 = ADVANCED_FACE ( 'NONE', ( #55 ), #75, .T. ) ;
#222 = AXIS2_PLACEMENT_3D ( 'NONE', #212, #49, #52 ) ;
#223 = COORDINATED_UNIVERSAL_TIME_OFFSET ( 1, 0, .AHEAD. ) ;
ENDSEC;
END-ISO-10303-21;
