ISO-10303-21;
HEADER;
FILE_DESCRIPTION (( 'STEP AP203' ),
    '1' );
FILE_NAME ('372632.step',
    '2021-12-08T09:33:14',
    ( '' ),
    ( '' ),
    'SwSTEP 2.0',
    'SolidWorks 2019',
    '' );
FILE_SCHEMA (( 'CONFIG_CONTROL_DESIGN' ));
ENDSEC;

DATA;
#1 = CLOSED_SHELL ( 'NONE', ( #68, #140, #79, #63, #148 ) ) ;
#2 = APPROVAL_ROLE ( '' ) ;
#3 = ORIENTED_EDGE ( 'NONE', *, *, #37, .F. ) ;
#4 = DESIGN_CONTEXT ( 'detailed design', #160, 'design' ) ;
#5 = PERSON_AND_ORGANIZATION ( #80, #19 ) ;
#6 = AXIS2_PLACEMENT_3D ( 'NONE', #95, #184, #93 ) ;
#7 = APPROVAL_ROLE ( '' ) ;
#8 = DIRECTION ( 'NONE',  ( 3.491481338843133355E-15, -1.276467311168695266E-16, 1.000000000000000000 ) ) ;
#9 = CARTESIAN_POINT ( 'NONE',  ( 1.396592535537253342E-14, -5.105869244674781062E-16, 4.000000000000000000 ) ) ;
#10 = ORIENTED_EDGE ( 'NONE', *, *, #207, .F. ) ;
#11 = CIRCLE ( 'NONE', #131, 0.4999999999999988343 ) ;
#12 = EDGE_LOOP ( 'NONE', ( #90 ) ) ;
#13 = AXIS2_PLACEMENT_3D ( 'NONE', #94, #77, #60 ) ;
#14 = CARTESIAN_POINT ( 'NONE',  ( -4.275831158534505967E-31, 1.499759681868677609E-32, -1.224646716843475728E-16 ) ) ;
#15 = SHAPE_DEFINITION_REPRESENTATION ( #212, #61 ) ;
#16 = AXIS2_PLACEMENT_3D ( 'NONE', #52, #192, #51 ) ;
#17 = APPROVAL_STATUS ( 'not_yet_approved' ) ;
#18 =( NAMED_UNIT ( * ) SI_UNIT ( $, .STERADIAN. ) SOLID_ANGLE_UNIT ( ) );
#19 = ORGANIZATION ( 'UNSPECIFIED', 'UNSPECIFIED', '' ) ;
#20 = CC_DESIGN_DATE_AND_TIME_ASSIGNMENT ( #198, #35, ( #103 ) ) ;
#21 = ORIENTED_EDGE ( 'NONE', *, *, #106, .F. ) ;
#22 = PERSON_AND_ORGANIZATION_ROLE ( 'design_supplier' ) ;
#23 = AXIS2_PLACEMENT_3D ( 'NONE', #127, #84, #151 ) ;
#24 = FACE_BOUND ( 'NONE', #116, .T. ) ;
#25 = EDGE_LOOP ( 'NONE', ( #3 ) ) ;
#26 = FACE_BOUND ( 'NONE', #223, .T. ) ;
#27 = EDGE_LOOP ( 'NONE', ( #114 ) ) ;
#28 = CIRCLE ( 'NONE', #143, 1.199999999999997291 ) ;
#29 = FACE_OUTER_BOUND ( 'NONE', #27, .T. ) ;
#30 = PLANE ( 'NONE',  #57 ) ;
#31 = DATE_AND_TIME ( #196, #121 ) ;
#32 = EDGE_LOOP ( 'NONE', ( #158 ) ) ;
#33 = DIRECTION ( 'NONE',  ( 0.0000000000000000000, 1.000000000000000000, 0.0000000000000000000 ) ) ;
#34 = APPROVAL_DATE_TIME ( #194, #124 ) ;
#35 = DATE_TIME_ROLE ( 'creation_date' ) ;
#36 = VERTEX_POINT ( 'NONE', #107 ) ;
#37 = EDGE_CURVE ( 'NONE', #195, #195, #142, .T. ) ;
#38 = CARTESIAN_POINT ( 'NONE',  ( 4.094901095205128284E-31, -0.4999999999999987232, 1.172826287126005972E-16 ) ) ;
#39 = AXIS2_PLACEMENT_3D ( 'NONE', #133, #208, #117 ) ;
#40 = DIRECTION ( 'NONE',  ( 0.0000000000000000000, 0.0000000000000000000, 1.000000000000000000 ) ) ;
#41 = APPROVAL_STATUS ( 'not_yet_approved' ) ;
#42 = CC_DESIGN_PERSON_AND_ORGANIZATION_ASSIGNMENT ( #91, #22, ( #82 ) ) ;
#43 = FACE_OUTER_BOUND ( 'NONE', #97, .T. ) ;
#44 = CC_DESIGN_APPROVAL ( #49, ( #103 ) ) ;
#45 = CC_DESIGN_SECURITY_CLASSIFICATION ( #162, ( #82 ) ) ;
#46 = PLANE ( 'NONE',  #62 ) ;
#47 = EDGE_LOOP ( 'NONE', ( #179 ) ) ;
#48 = EDGE_LOOP ( 'NONE', ( #21 ) ) ;
#49 = APPROVAL ( #17, 'UNSPECIFIED' ) ;
#50 = LOCAL_TIME ( 10, 33, 14.00000000000000000, #200 ) ;
#51 = DIRECTION ( 'NONE',  ( -4.275831445896958607E-31, -1.000000000000000000, -1.224646799147353207E-16 ) ) ;
#52 = CARTESIAN_POINT ( 'NONE',  ( 1.396592535537253342E-14, 1.124819836996388279E-32, 4.000000000000000000 ) ) ;
#53 = COORDINATED_UNIVERSAL_TIME_OFFSET ( 1, 0, .AHEAD. ) ;
#54 = CC_DESIGN_PERSON_AND_ORGANIZATION_ASSIGNMENT ( #109, #102, ( #162 ) ) ;
#55 = DATE_AND_TIME ( #210, #50 ) ;
#56 = COORDINATED_UNIVERSAL_TIME_OFFSET ( 1, 0, .AHEAD. ) ;
#57 = AXIS2_PLACEMENT_3D ( 'NONE', #14, #132, #222 ) ;
#58 = CALENDAR_DATE ( 2021, 8, 12 ) ;
#59 = ORIENTED_EDGE ( 'NONE', *, *, #167, .F. ) ;
#60 = DIRECTION ( 'NONE',  ( 0.0000000000000000000, 1.000000000000000000, 0.0000000000000000000 ) ) ;
#61 = ADVANCED_BREP_SHAPE_REPRESENTATION ( '372632', ( #154, #72, #100 ), #193 ) ;
#62 = AXIS2_PLACEMENT_3D ( 'NONE', #204, #112, #96 ) ;
#63 = ADVANCED_FACE ( 'NONE', ( #24, #29 ), #104, .T. ) ;
#64 = FACE_OUTER_BOUND ( 'NONE', #189, .T. ) ;
#65 = ORIENTED_EDGE ( 'NONE', *, *, #167, .T. ) ;
#66 = ORIENTED_EDGE ( 'NONE', *, *, #106, .T. ) ;
#67 = CC_DESIGN_APPROVAL ( #119, ( #82 ) ) ;
#68 = ADVANCED_FACE ( 'NONE', ( #64, #188 ), #217, .T. ) ;
#69 = COORDINATED_UNIVERSAL_TIME_OFFSET ( 1, 0, .AHEAD. ) ;
#70 = PERSON_AND_ORGANIZATION ( #80, #19 ) ;
#71 = AXIS2_PLACEMENT_3D ( 'NONE', #145, #219, #130 ) ;
#72 = MANIFOLD_SOLID_BREP ( 'Corps-Déplacer/Copier1[2]', #205 ) ;
#73 = VERTEX_POINT ( 'NONE', #38 ) ;
#74 = AXIS2_PLACEMENT_3D ( 'NONE', #81, #163, #129 ) ;
#75 = APPROVAL_PERSON_ORGANIZATION ( #206, #124, #134 ) ;
#76 = APPROVAL_DATE_TIME ( #161, #119 ) ;
#77 = DIRECTION ( 'NONE',  ( -3.491481338843133355E-15, 1.224646799147353207E-16, -1.000000000000000000 ) ) ;
#78 = DIRECTION ( 'NONE',  ( 3.491481338843133355E-15, -1.276467311168695266E-16, 1.000000000000000000 ) ) ;
#79 = ADVANCED_FACE ( 'NONE', ( #43 ), #46, .F. ) ;
#80 = PERSON ( 'UNSPECIFIED', 'UNSPECIFIED', 'UNSPECIFIED', ('UNSPECIFIED'), ('UNSPECIFIED'), ('UNSPECIFIED') ) ;
#81 = CARTESIAN_POINT ( 'NONE',  ( 0.0000000000000000000, 0.0000000000000000000, 0.0000000000000000000 ) ) ;
#82 = PRODUCT_DEFINITION_FORMATION_WITH_SPECIFIED_SOURCE ( 'ANY', '', #118, .NOT_KNOWN. ) ;
#83 = DIRECTION ( 'NONE',  ( -3.491481338843133355E-15, 1.276467311168695266E-16, -1.000000000000000000 ) ) ;
#84 = DIRECTION ( 'NONE',  ( -3.491481338843133355E-15, 1.224646799147353207E-16, -1.000000000000000000 ) ) ;
#85 = FACE_OUTER_BOUND ( 'NONE', #47, .T. ) ;
#86 = APPROVAL_DATE_TIME ( #55, #49 ) ;
#87 = CARTESIAN_POINT ( 'NONE',  ( 1.316288464743861212E-13, 1.499999999999992895, 37.69999999999999574 ) ) ;
#88 = CC_DESIGN_PERSON_AND_ORGANIZATION_ASSIGNMENT ( #215, #181, ( #82 ) ) ;
#89 = VERTEX_POINT ( 'NONE', #178 ) ;
#90 = ORIENTED_EDGE ( 'NONE', *, *, #98, .T. ) ;
#91 = PERSON_AND_ORGANIZATION ( #80, #19 ) ;
#92 = DIRECTION ( 'NONE',  ( 0.0000000000000000000, -1.000000000000000000, 0.0000000000000000000 ) ) ;
#93 = DIRECTION ( 'NONE',  ( -4.275831445896958607E-31, -1.000000000000000000, -1.224646799147353207E-16 ) ) ;
#94 = CARTESIAN_POINT ( 'NONE',  ( 1.326762908760390423E-13, -4.653657836759941941E-15, 38.00000000000000000 ) ) ;
#95 = CARTESIAN_POINT ( 'NONE',  ( 1.396592535537253342E-14, 1.124819836996388279E-32, 4.000000000000000000 ) ) ;
#96 = DIRECTION ( 'NONE',  ( 4.275831445896958607E-31, 1.000000000000000000, 1.224646799147353207E-16 ) ) ;
#97 = EDGE_LOOP ( 'NONE', ( #10 ) ) ;
#98 = EDGE_CURVE ( 'NONE', #73, #73, #146, .T. ) ;
#99 = CARTESIAN_POINT ( 'NONE',  ( 1.326762908760390423E-13, -4.653657836759941941E-15, 38.00000000000000000 ) ) ;
#100 = AXIS2_PLACEMENT_3D ( 'NONE', #213, #40, #214 ) ;
#101 = FACE_OUTER_BOUND ( 'NONE', #147, .T. ) ;
#102 = PERSON_AND_ORGANIZATION_ROLE ( 'classification_officer' ) ;
#103 = PRODUCT_DEFINITION ( 'UNKNOWN', '', #82, #4 ) ;
#104 = CONICAL_SURFACE ( 'NONE', #125, 5.499999999999999112, 0.2617993877991501850 ) ;
#105 = PERSON_AND_ORGANIZATION ( #80, #19 ) ;
#106 = EDGE_CURVE ( 'NONE', #123, #123, #183, .T. ) ;
#107 = CARTESIAN_POINT ( 'NONE',  ( 1.326762908760390423E-13, 1.199999999999992628, 38.00000000000000000 ) ) ;
#108 = ORIENTED_EDGE ( 'NONE', *, *, #37, .T. ) ;
#109 = PERSON_AND_ORGANIZATION ( #80, #19 ) ;
#110 = ORIENTED_EDGE ( 'NONE', *, *, #207, .T. ) ;
#111 = DIRECTION ( 'NONE',  ( 0.0000000000000000000, -1.000000000000000000, 0.0000000000000000000 ) ) ;
#112 = DIRECTION ( 'NONE',  ( -3.491481338843133355E-15, 1.224646799147353207E-16, -1.000000000000000000 ) ) ;
#113 = CONICAL_SURFACE ( 'NONE', #13, 1.199999999999997291, 0.7853981633974457255 ) ;
#114 = ORIENTED_EDGE ( 'NONE', *, *, #216, .T. ) ;
#115 = DIRECTION ( 'NONE',  ( -3.491481338843133355E-15, 1.224646799147353207E-16, -1.000000000000000000 ) ) ;
#116 = EDGE_LOOP ( 'NONE', ( #66 ) ) ;
#117 = DIRECTION ( 'NONE',  ( -4.456761796588768785E-31, -1.000000000000000000, -1.276467311168695512E-16 ) ) ;
#118 = PRODUCT ( '372632', '372632', '', ( #173 ) ) ;
#119 = APPROVAL ( #41, 'UNSPECIFIED' ) ;
#120 = CIRCLE ( 'NONE', #218, 1.499999999999995781 ) ;
#121 = LOCAL_TIME ( 10, 33, 14.00000000000000000, #69 ) ;
#122 = CALENDAR_DATE ( 2021, 8, 12 ) ;
#123 = VERTEX_POINT ( 'NONE', #139 ) ;
#124 = APPROVAL ( #190, 'UNSPECIFIED' ) ;
#125 = AXIS2_PLACEMENT_3D ( 'NONE', #150, #165, #92 ) ;
#126 = COORDINATED_UNIVERSAL_TIME_OFFSET ( 1, 0, .AHEAD. ) ;
#127 = CARTESIAN_POINT ( 'NONE',  ( 1.316288464743861212E-13, -4.616918432785521081E-15, 37.69999999999999574 ) ) ;
#128 = PLANE ( 'NONE',  #6 ) ;
#129 = DIRECTION ( 'NONE',  ( 4.275831445896958607E-31, 1.000000000000000000, 1.224646799147353207E-16 ) ) ;
#130 = DIRECTION ( 'NONE',  ( -4.456761796588770537E-31, -1.000000000000000000, -1.276467311168695266E-16 ) ) ;
#131 = AXIS2_PLACEMENT_3D ( 'NONE', #9, #78, #111 ) ;
#132 = DIRECTION ( 'NONE',  ( 3.491481338843133355E-15, -1.224646799147353207E-16, 1.000000000000000000 ) ) ;
#133 = CARTESIAN_POINT ( 'NONE',  ( -6.413839710158237013E-31, 0.0000000000000000000, -1.836996703606440502E-16 ) ) ;
#134 = APPROVAL_ROLE ( '' ) ;
#135 = APPROVAL_PERSON_ORGANIZATION ( #105, #119, #7 ) ;
#136 = PERSON_AND_ORGANIZATION_ROLE ( 'creator' ) ;
#137 = APPROVAL_PERSON_ORGANIZATION ( #5, #49, #2 ) ;
#138 = LOCAL_TIME ( 10, 33, 14.00000000000000000, #53 ) ;
#139 = CARTESIAN_POINT ( 'NONE',  ( 1.396592535537253342E-14, -0.4999999999999993339, 4.000000000000000000 ) ) ;
#140 = ADVANCED_FACE ( 'NONE', ( #187, #26 ), #113, .T. ) ;
#141 = VERTEX_POINT ( 'NONE', #176 ) ;
#142 = CIRCLE ( 'NONE', #23, 1.499999999999997335 ) ;
#143 = AXIS2_PLACEMENT_3D ( 'NONE', #99, #115, #33 ) ;
#144 = FACE_OUTER_BOUND ( 'NONE', #48, .T. ) ;
#145 = CARTESIAN_POINT ( 'NONE',  ( 6.323281993499507860E-31, -4.656625058315083898E-32, 1.811059942710351879E-16 ) ) ;
#146 = CIRCLE ( 'NONE', #71, 0.4999999999999987232 ) ;
#147 = EDGE_LOOP ( 'NONE', ( #59 ) ) ;
#148 = ADVANCED_FACE ( 'NONE', ( #144 ), #128, .F. ) ;
#149 = APPLICATION_CONTEXT ( 'configuration controlled 3d designs of mechanical parts and assemblies' ) ;
#150 = CARTESIAN_POINT ( 'NONE',  ( 7.911785410657825390E-14, -2.892507354208672546E-15, 22.66025403784433223 ) ) ;
#151 = DIRECTION ( 'NONE',  ( 0.0000000000000000000, 1.000000000000000000, 0.0000000000000000000 ) ) ;
#152 = CARTESIAN_POINT ( 'NONE',  ( 2.699631110561362892E-14, -9.869710104157150614E-16, 7.732050807568852768 ) ) ;
#153 = CALENDAR_DATE ( 2021, 8, 12 ) ;
#154 = MANIFOLD_SOLID_BREP ( 'Corps-Déplacer/Copier1[1]', #1 ) ;
#155 = PRODUCT_RELATED_PRODUCT_CATEGORY ( 'detail', '', ( #118 ) ) ;
#156 = PERSON_AND_ORGANIZATION_ROLE ( 'design_owner' ) ;
#157 = EDGE_LOOP ( 'NONE', ( #65 ) ) ;
#158 = ORIENTED_EDGE ( 'NONE', *, *, #216, .F. ) ;
#159 = APPLICATION_PROTOCOL_DEFINITION ( 'international standard', 'config_control_design', 1994, #149 ) ;
#160 = APPLICATION_CONTEXT ( 'configuration controlled 3d designs of mechanical parts and assemblies' ) ;
#161 = DATE_AND_TIME ( #58, #166 ) ;
#162 = SECURITY_CLASSIFICATION ( '', '', #202 ) ;
#163 = DIRECTION ( 'NONE',  ( -3.491481338843133355E-15, 1.224646799147353207E-16, -1.000000000000000000 ) ) ;
#164 = CC_DESIGN_PERSON_AND_ORGANIZATION_ASSIGNMENT ( #70, #136, ( #103 ) ) ;
#165 = DIRECTION ( 'NONE',  ( 3.491481338843133355E-15, -1.276467311168695266E-16, 1.000000000000000000 ) ) ;
#166 = LOCAL_TIME ( 10, 33, 14.00000000000000000, #126 ) ;
#167 = EDGE_CURVE ( 'NONE', #89, #89, #11, .T. ) ;
#168 = DIRECTION ( 'NONE',  ( 0.0000000000000000000, -1.000000000000000000, 0.0000000000000000000 ) ) ;
#169 = PLANE ( 'NONE',  #16 ) ;
#170 = AXIS2_PLACEMENT_3D ( 'NONE', #182, #8, #203 ) ;
#171 = CC_DESIGN_APPROVAL ( #124, ( #162 ) ) ;
#172 = APPLICATION_PROTOCOL_DEFINITION ( 'international standard', 'config_control_design', 1994, #160 ) ;
#173 = MECHANICAL_CONTEXT ( 'NONE', #149, 'mechanical' ) ;
#174 =( NAMED_UNIT ( * ) PLANE_ANGLE_UNIT ( ) SI_UNIT ( $, .RADIAN. ) );
#175 = LOCAL_TIME ( 10, 33, 14.00000000000000000, #56 ) ;
#176 = CARTESIAN_POINT ( 'NONE',  ( 2.699631110561362892E-14, -1.499999999999996669, 7.732050807568852768 ) ) ;
#177 = UNCERTAINTY_MEASURE_WITH_UNIT (LENGTH_MEASURE( 1.000000000000000082E-05 ), #197, 'distance_accuracy_value', 'NONE');
#178 = CARTESIAN_POINT ( 'NONE',  ( 1.396592535537253342E-14, -0.4999999999999993339, 4.000000000000000000 ) ) ;
#179 = ORIENTED_EDGE ( 'NONE', *, *, #98, .F. ) ;
#180 = ADVANCED_FACE ( 'NONE', ( #185, #101 ), #220, .T. ) ;
#181 = PERSON_AND_ORGANIZATION_ROLE ( 'creator' ) ;
#182 = CARTESIAN_POINT ( 'NONE',  ( 1.396592535537253342E-14, -5.105869244674781062E-16, 4.000000000000000000 ) ) ;
#183 = CIRCLE ( 'NONE', #170, 0.4999999999999988343 ) ;
#184 = DIRECTION ( 'NONE',  ( 3.491481338843133355E-15, -1.224646799147353207E-16, 1.000000000000000000 ) ) ;
#185 = FACE_OUTER_BOUND ( 'NONE', #12, .T. ) ;
#186 = CC_DESIGN_PERSON_AND_ORGANIZATION_ASSIGNMENT ( #199, #156, ( #118 ) ) ;
#187 = FACE_OUTER_BOUND ( 'NONE', #25, .T. ) ;
#188 = FACE_OUTER_BOUND ( 'NONE', #32, .T. ) ;
#189 = EDGE_LOOP ( 'NONE', ( #108 ) ) ;
#190 = APPROVAL_STATUS ( 'not_yet_approved' ) ;
#191 = CC_DESIGN_DATE_AND_TIME_ASSIGNMENT ( #31, #221, ( #162 ) ) ;
#192 = DIRECTION ( 'NONE',  ( 3.491481338843133355E-15, -1.224646799147353207E-16, 1.000000000000000000 ) ) ;
#193 =( GEOMETRIC_REPRESENTATION_CONTEXT ( 3 ) GLOBAL_UNCERTAINTY_ASSIGNED_CONTEXT ( ( #177 ) ) GLOBAL_UNIT_ASSIGNED_CONTEXT ( ( #197, #174, #18 ) ) REPRESENTATION_CONTEXT ( 'NONE', 'WORKASPACE' ) );
#194 = DATE_AND_TIME ( #153, #138 ) ;
#195 = VERTEX_POINT ( 'NONE', #87 ) ;
#196 = CALENDAR_DATE ( 2021, 8, 12 ) ;
#197 =( LENGTH_UNIT ( ) NAMED_UNIT ( * ) SI_UNIT ( .MILLI., .METRE. ) );
#198 = DATE_AND_TIME ( #122, #175 ) ;
#199 = PERSON_AND_ORGANIZATION ( #80, #19 ) ;
#200 = COORDINATED_UNIVERSAL_TIME_OFFSET ( 1, 0, .AHEAD. ) ;
#201 = ADVANCED_FACE ( 'NONE', ( #209 ), #169, .T. ) ;
#202 = SECURITY_CLASSIFICATION_LEVEL ( 'unclassified' ) ;
#203 = DIRECTION ( 'NONE',  ( 0.0000000000000000000, -1.000000000000000000, 0.0000000000000000000 ) ) ;
#204 = CARTESIAN_POINT ( 'NONE',  ( 1.326762908760390423E-13, 8.998558695971058066E-33, 38.00000000000000000 ) ) ;
#205 = CLOSED_SHELL ( 'NONE', ( #201, #180, #211 ) ) ;
#206 = PERSON_AND_ORGANIZATION ( #80, #19 ) ;
#207 = EDGE_CURVE ( 'NONE', #36, #36, #28, .T. ) ;
#208 = DIRECTION ( 'NONE',  ( 3.491481338843133355E-15, -1.276467311168695266E-16, 1.000000000000000000 ) ) ;
#209 = FACE_OUTER_BOUND ( 'NONE', #157, .T. ) ;
#210 = CALENDAR_DATE ( 2021, 8, 12 ) ;
#211 = ADVANCED_FACE ( 'NONE', ( #85 ), #30, .F. ) ;
#212 = PRODUCT_DEFINITION_SHAPE ( 'NONE', 'NONE',  #103 ) ;
#213 = CARTESIAN_POINT ( 'NONE',  ( 0.0000000000000000000, 0.0000000000000000000, 0.0000000000000000000 ) ) ;
#214 = DIRECTION ( 'NONE',  ( 1.000000000000000000, 0.0000000000000000000, 0.0000000000000000000 ) ) ;
#215 = PERSON_AND_ORGANIZATION ( #80, #19 ) ;
#216 = EDGE_CURVE ( 'NONE', #141, #141, #120, .T. ) ;
#217 = CYLINDRICAL_SURFACE ( 'NONE', #74, 1.499999999999995781 ) ;
#218 = AXIS2_PLACEMENT_3D ( 'NONE', #152, #83, #168 ) ;
#219 = DIRECTION ( 'NONE',  ( 3.491481338843133355E-15, -1.276467311168695266E-16, 1.000000000000000000 ) ) ;
#220 = CYLINDRICAL_SURFACE ( 'NONE', #39, 0.4999999999999987232 ) ;
#221 = DATE_TIME_ROLE ( 'classification_date' ) ;
#222 = DIRECTION ( 'NONE',  ( -4.275831445896958607E-31, -1.000000000000000000, -1.224646799147353207E-16 ) ) ;
#223 = EDGE_LOOP ( 'NONE', ( #110 ) ) ;
ENDSEC;
END-ISO-10303-21;
