ISO-10303-21;
HEADER;
FILE_DESCRIPTION (( 'STEP AP203' ),
    '1' );
FILE_NAME ('372631.step',
    '2021-12-08T08:40:43',
    ( '' ),
    ( '' ),
    'SwSTEP 2.0',
    'SolidWorks 2019',
    '' );
FILE_SCHEMA (( 'CONFIG_CONTROL_DESIGN' ));
ENDSEC;

DATA;
#1 = COORDINATED_UNIVERSAL_TIME_OFFSET ( 1, 0, .AHEAD. ) ;
#2 = DATE_AND_TIME ( #127, #182 ) ;
#3 = APPROVAL_STATUS ( 'not_yet_approved' ) ;
#4 = APPROVAL_STATUS ( 'not_yet_approved' ) ;
#5 = AXIS2_PLACEMENT_3D ( 'NONE', #97, #8, #58 ) ;
#6 = EDGE_LOOP ( 'NONE', ( #54 ) ) ;
#7 = DIRECTION ( 'NONE',  ( 0.0000000000000000000, 1.000000000000000000, 0.0000000000000000000 ) ) ;
#8 = DIRECTION ( 'NONE',  ( -3.491481338843133355E-15, 1.224646799147353207E-16, -1.000000000000000000 ) ) ;
#9 = CC_DESIGN_PERSON_AND_ORGANIZATION_ASSIGNMENT ( #66, #203, ( #112 ) ) ;
#10 = FACE_OUTER_BOUND ( 'NONE', #6, .T. ) ;
#11 = CARTESIAN_POINT ( 'NONE',  ( 4.275715660049252706E-31, 5.999999999999991118, 1.224613636762545442E-16 ) ) ;
#12 = FACE_OUTER_BOUND ( 'NONE', #23, .T. ) ;
#13 = COORDINATED_UNIVERSAL_TIME_OFFSET ( 1, 0, .AHEAD. ) ;
#14 = DATE_AND_TIME ( #187, #29 ) ;
#15 = AXIS2_PLACEMENT_3D ( 'NONE', #152, #168, #78 ) ;
#16 = APPROVAL ( #3, 'UNSPECIFIED' ) ;
#17 = DATE_AND_TIME ( #84, #102 ) ;
#18 = APPROVAL_ROLE ( '' ) ;
#19 = EDGE_CURVE ( 'NONE', #202, #202, #141, .T. ) ;
#20 = APPROVAL_PERSON_ORGANIZATION ( #28, #16, #81 ) ;
#21 = EDGE_LOOP ( 'NONE', ( #104 ) ) ;
#22 = EDGE_LOOP ( 'NONE', ( #132 ) ) ;
#23 = EDGE_LOOP ( 'NONE', ( #36 ) ) ;
#24 = CARTESIAN_POINT ( 'NONE',  ( 3.449583562777016007E-13, -1.209951037557585031E-14, 98.79999999999999716 ) ) ;
#25 = CARTESIAN_POINT ( 'NONE',  ( 1.780655482809997885E-13, 5.999999999999990230, 51.00000000000000000 ) ) ;
#26 = DIRECTION ( 'NONE',  ( -3.491481338843133355E-15, 1.224646799147353207E-16, -1.000000000000000000 ) ) ;
#27 = CARTESIAN_POINT ( 'NONE',  ( 0.0000000000000000000, 0.0000000000000000000, 0.0000000000000000000 ) ) ;
#28 = PERSON_AND_ORGANIZATION ( #62, #74 ) ;
#29 = LOCAL_TIME ( 9, 40, 42.00000000000000000, #31 ) ;
#30 = ADVANCED_BREP_SHAPE_REPRESENTATION ( '372631', ( #63, #131, #130 ), #51 ) ;
#31 = COORDINATED_UNIVERSAL_TIME_OFFSET ( 1, 0, .AHEAD. ) ;
#32 = CALENDAR_DATE ( 2021, 8, 12 ) ;
#33 = LOCAL_TIME ( 9, 40, 42.00000000000000000, #1 ) ;
#34 = FACE_OUTER_BOUND ( 'NONE', #179, .T. ) ;
#35 = EDGE_LOOP ( 'NONE', ( #174 ) ) ;
#36 = ORIENTED_EDGE ( 'NONE', *, *, #77, .T. ) ;
#37 = CC_DESIGN_PERSON_AND_ORGANIZATION_ASSIGNMENT ( #143, #154, ( #61 ) ) ;
#38 =( LENGTH_UNIT ( ) NAMED_UNIT ( * ) SI_UNIT ( .MILLI., .METRE. ) );
#39 = FACE_OUTER_BOUND ( 'NONE', #35, .T. ) ;
#40 = AXIS2_PLACEMENT_3D ( 'NONE', #144, #70, #129 ) ;
#41 = VERTEX_POINT ( 'NONE', #122 ) ;
#42 = PLANE ( 'NONE',  #133 ) ;
#43 = PRODUCT_RELATED_PRODUCT_CATEGORY ( 'detail', '', ( #167 ) ) ;
#44 = CC_DESIGN_SECURITY_CLASSIFICATION ( #119, ( #112 ) ) ;
#45 = CC_DESIGN_PERSON_AND_ORGANIZATION_ASSIGNMENT ( #46, #114, ( #167 ) ) ;
#46 = PERSON_AND_ORGANIZATION ( #62, #74 ) ;
#47 = APPROVAL_DATE_TIME ( #14, #16 ) ;
#48 = APPROVAL ( #4, 'UNSPECIFIED' ) ;
#49 = SECURITY_CLASSIFICATION_LEVEL ( 'unclassified' ) ;
#50 = CARTESIAN_POINT ( 'NONE',  ( 3.491481338843133355E-13, 3.599423478388442932E-32, 100.0000000000000000 ) ) ;
#51 =( GEOMETRIC_REPRESENTATION_CONTEXT ( 3 ) GLOBAL_UNCERTAINTY_ASSIGNED_CONTEXT ( ( #195 ) ) GLOBAL_UNIT_ASSIGNED_CONTEXT ( ( #38, #56, #150 ) ) REPRESENTATION_CONTEXT ( 'NONE', 'WORKASPACE' ) );
#52 = EDGE_LOOP ( 'NONE', ( #161 ) ) ;
#53 = ADVANCED_FACE ( 'NONE', ( #34 ), #190, .F. ) ;
#54 = ORIENTED_EDGE ( 'NONE', *, *, #151, .T. ) ;
#55 = CC_DESIGN_DATE_AND_TIME_ASSIGNMENT ( #115, #156, ( #119 ) ) ;
#56 =( NAMED_UNIT ( * ) PLANE_ANGLE_UNIT ( ) SI_UNIT ( $, .RADIAN. ) );
#57 = CYLINDRICAL_SURFACE ( 'NONE', #116, 6.000000000000000000 ) ;
#58 = DIRECTION ( 'NONE',  ( 4.275831445896958607E-31, 1.000000000000000000, 1.224646799147353207E-16 ) ) ;
#59 = VERTEX_POINT ( 'NONE', #200 ) ;
#60 = DIRECTION ( 'NONE',  ( 4.275831445896959482E-31, 1.000000000000000000, 1.224646799147353207E-16 ) ) ;
#61 = PRODUCT_DEFINITION ( 'UNKNOWN', '', #112, #91 ) ;
#62 = PERSON ( 'UNSPECIFIED', 'UNSPECIFIED', 'UNSPECIFIED', ('UNSPECIFIED'), ('UNSPECIFIED'), ('UNSPECIFIED') ) ;
#63 = MANIFOLD_SOLID_BREP ( 'Corps-Déplacer/Copier1[1]', #185 ) ;
#64 = APPROVAL_ROLE ( '' ) ;
#65 = AXIS2_PLACEMENT_3D ( 'NONE', #89, #26, #109 ) ;
#66 = PERSON_AND_ORGANIZATION ( #62, #74 ) ;
#67 = SHAPE_DEFINITION_REPRESENTATION ( #153, #30 ) ;
#68 = COORDINATED_UNIVERSAL_TIME_OFFSET ( 1, 0, .AHEAD. ) ;
#69 = CC_DESIGN_APPROVAL ( #48, ( #112 ) ) ;
#70 = DIRECTION ( 'NONE',  ( -3.491481338843133355E-15, 1.224646799147353207E-16, -1.000000000000000000 ) ) ;
#71 = CC_DESIGN_APPROVAL ( #199, ( #61 ) ) ;
#72 = FACE_OUTER_BOUND ( 'NONE', #146, .T. ) ;
#73 = CONICAL_SURFACE ( 'NONE', #93, 4.800000000000003375, 0.7853981633974453924 ) ;
#74 = ORGANIZATION ( 'UNSPECIFIED', 'UNSPECIFIED', '' ) ;
#75 = CARTESIAN_POINT ( 'NONE',  ( 1.780655482809997885E-13, -6.245698675651500444E-15, 51.00000000000000000 ) ) ;
#76 = PLANE ( 'NONE',  #111 ) ;
#77 = EDGE_CURVE ( 'NONE', #184, #184, #158, .T. ) ;
#78 = DIRECTION ( 'NONE',  ( -4.275831445896958607E-31, -1.000000000000000000, -1.224646799147353207E-16 ) ) ;
#79 = CARTESIAN_POINT ( 'NONE',  ( -1.068963650766623239E-30, 3.749419762758841206E-32, -3.061633579060781477E-16 ) ) ;
#80 = DATE_TIME_ROLE ( 'creation_date' ) ;
#81 = APPROVAL_ROLE ( '' ) ;
#82 = APPROVAL_STATUS ( 'not_yet_approved' ) ;
#83 = ADVANCED_FACE ( 'NONE', ( #201, #92 ), #73, .T. ) ;
#84 = CALENDAR_DATE ( 2021, 8, 12 ) ;
#85 = AXIS2_PLACEMENT_3D ( 'NONE', #75, #183, #7 ) ;
#86 = LOCAL_TIME ( 9, 40, 42.00000000000000000, #186 ) ;
#87 = DIRECTION ( 'NONE',  ( 4.275831445896958607E-31, 1.000000000000000000, 1.224646799147353207E-16 ) ) ;
#88 = ADVANCED_FACE ( 'NONE', ( #137, #106 ), #147, .T. ) ;
#89 = CARTESIAN_POINT ( 'NONE',  ( 1.780655482809997885E-13, -6.245698675651500444E-15, 51.00000000000000000 ) ) ;
#90 = APPLICATION_CONTEXT ( 'configuration controlled 3d designs of mechanical parts and assemblies' ) ;
#91 = DESIGN_CONTEXT ( 'detailed design', #90, 'design' ) ;
#92 = FACE_BOUND ( 'NONE', #193, .T. ) ;
#93 = AXIS2_PLACEMENT_3D ( 'NONE', #148, #121, #108 ) ;
#94 = CIRCLE ( 'NONE', #65, 5.999999999999996447 ) ;
#95 = ADVANCED_FACE ( 'NONE', ( #198, #10 ), #57, .T. ) ;
#96 = VERTEX_POINT ( 'NONE', #25 ) ;
#97 = CARTESIAN_POINT ( 'NONE',  ( 0.0000000000000000000, 0.0000000000000000000, 0.0000000000000000000 ) ) ;
#98 = CC_DESIGN_PERSON_AND_ORGANIZATION_ASSIGNMENT ( #172, #124, ( #119 ) ) ;
#99 = DIRECTION ( 'NONE',  ( 1.000000000000000000, 0.0000000000000000000, 0.0000000000000000000 ) ) ;
#100 = PERSON_AND_ORGANIZATION ( #62, #74 ) ;
#101 = MECHANICAL_CONTEXT ( 'NONE', #162, 'mechanical' ) ;
#102 = LOCAL_TIME ( 9, 40, 42.00000000000000000, #13 ) ;
#103 = DIRECTION ( 'NONE',  ( -3.491481338843133355E-15, 1.224646799147353207E-16, -1.000000000000000000 ) ) ;
#104 = ORIENTED_EDGE ( 'NONE', *, *, #128, .F. ) ;
#105 = DIRECTION ( 'NONE',  ( 0.0000000000000000000, 1.000000000000000000, 0.0000000000000000000 ) ) ;
#106 = FACE_OUTER_BOUND ( 'NONE', #177, .T. ) ;
#107 = CLOSED_SHELL ( 'NONE', ( #166, #88, #160 ) ) ;
#108 = DIRECTION ( 'NONE',  ( 0.0000000000000000000, 1.000000000000000000, 0.0000000000000000000 ) ) ;
#109 = DIRECTION ( 'NONE',  ( 0.0000000000000000000, 1.000000000000000000, 0.0000000000000000000 ) ) ;
#110 = DIRECTION ( 'NONE',  ( -3.491481338843133355E-15, 1.224646799147353207E-16, -1.000000000000000000 ) ) ;
#111 = AXIS2_PLACEMENT_3D ( 'NONE', #79, #181, #165 ) ;
#112 = PRODUCT_DEFINITION_FORMATION_WITH_SPECIFIED_SOURCE ( 'ANY', '', #167, .NOT_KNOWN. ) ;
#113 = PERSON_AND_ORGANIZATION ( #62, #74 ) ;
#114 = PERSON_AND_ORGANIZATION_ROLE ( 'design_owner' ) ;
#115 = DATE_AND_TIME ( #32, #86 ) ;
#116 = AXIS2_PLACEMENT_3D ( 'NONE', #27, #110, #163 ) ;
#117 = ORIENTED_EDGE ( 'NONE', *, *, #19, .F. ) ;
#118 = ORIENTED_EDGE ( 'NONE', *, *, #145, .T. ) ;
#119 = SECURITY_CLASSIFICATION ( '', '', #49 ) ;
#120 = DIRECTION ( 'NONE',  ( -3.491481338843133355E-15, 1.224646799147353207E-16, -1.000000000000000000 ) ) ;
#121 = DIRECTION ( 'NONE',  ( -3.491481338843133355E-15, 1.224646799147353207E-16, -1.000000000000000000 ) ) ;
#122 = CARTESIAN_POINT ( 'NONE',  ( 3.449583562777016007E-13, 5.999999999999990230, 98.79999999999999716 ) ) ;
#123 = CIRCLE ( 'NONE', #169, 6.000000000000002665 ) ;
#124 = PERSON_AND_ORGANIZATION_ROLE ( 'classification_officer' ) ;
#125 = CALENDAR_DATE ( 2021, 8, 12 ) ;
#126 = DIRECTION ( 'NONE',  ( 0.0000000000000000000, 0.0000000000000000000, 1.000000000000000000 ) ) ;
#127 = CALENDAR_DATE ( 2021, 8, 12 ) ;
#128 = EDGE_CURVE ( 'NONE', #96, #96, #94, .T. ) ;
#129 = DIRECTION ( 'NONE',  ( 0.0000000000000000000, 1.000000000000000000, 0.0000000000000000000 ) ) ;
#130 = AXIS2_PLACEMENT_3D ( 'NONE', #157, #126, #99 ) ;
#131 = MANIFOLD_SOLID_BREP ( 'Corps-Déplacer/Copier1[2]', #107 ) ;
#132 = ORIENTED_EDGE ( 'NONE', *, *, #77, .F. ) ;
#133 = AXIS2_PLACEMENT_3D ( 'NONE', #139, #134, #197 ) ;
#134 = DIRECTION ( 'NONE',  ( 3.491481338843133355E-15, -1.224646799147353207E-16, 1.000000000000000000 ) ) ;
#135 = CC_DESIGN_APPROVAL ( #16, ( #119 ) ) ;
#136 = PLANE ( 'NONE',  #15 ) ;
#137 = FACE_OUTER_BOUND ( 'NONE', #22, .T. ) ;
#138 = CARTESIAN_POINT ( 'NONE',  ( -2.137927301533246478E-30, 7.498839525517682412E-32, -6.123267158121562954E-16 ) ) ;
#139 = CARTESIAN_POINT ( 'NONE',  ( 1.780655482809997885E-13, 4.499279347985561328E-32, 51.00000000000000000 ) ) ;
#140 = APPROVAL_DATE_TIME ( #17, #199 ) ;
#141 = CIRCLE ( 'NONE', #40, 4.800000000000003375 ) ;
#142 = DATE_AND_TIME ( #125, #33 ) ;
#143 = PERSON_AND_ORGANIZATION ( #62, #74 ) ;
#144 = CARTESIAN_POINT ( 'NONE',  ( 3.491481338843133355E-13, -1.224646799147353217E-14, 100.0000000000000000 ) ) ;
#145 = EDGE_CURVE ( 'NONE', #59, #59, #176, .T. ) ;
#146 = EDGE_LOOP ( 'NONE', ( #191 ) ) ;
#147 = CYLINDRICAL_SURFACE ( 'NONE', #5, 5.999999999999993783 ) ;
#148 = CARTESIAN_POINT ( 'NONE',  ( 3.491481338843133355E-13, -1.224646799147353217E-14, 100.0000000000000000 ) ) ;
#149 = AXIS2_PLACEMENT_3D ( 'NONE', #50, #103, #87 ) ;
#150 =( NAMED_UNIT ( * ) SI_UNIT ( $, .STERADIAN. ) SOLID_ANGLE_UNIT ( ) );
#151 = EDGE_CURVE ( 'NONE', #41, #41, #123, .T. ) ;
#152 = CARTESIAN_POINT ( 'NONE',  ( 1.780655482809997885E-13, 4.499279347985561328E-32, 51.00000000000000000 ) ) ;
#153 = PRODUCT_DEFINITION_SHAPE ( 'NONE', 'NONE',  #61 ) ;
#154 = PERSON_AND_ORGANIZATION_ROLE ( 'creator' ) ;
#155 = PERSON_AND_ORGANIZATION ( #62, #74 ) ;
#156 = DATE_TIME_ROLE ( 'classification_date' ) ;
#157 = CARTESIAN_POINT ( 'NONE',  ( 0.0000000000000000000, 0.0000000000000000000, 0.0000000000000000000 ) ) ;
#158 = CIRCLE ( 'NONE', #196, 5.999999999999991118 ) ;
#159 = CC_DESIGN_PERSON_AND_ORGANIZATION_ASSIGNMENT ( #100, #171, ( #112 ) ) ;
#160 = ADVANCED_FACE ( 'NONE', ( #72 ), #136, .T. ) ;
#161 = ORIENTED_EDGE ( 'NONE', *, *, #151, .F. ) ;
#162 = APPLICATION_CONTEXT ( 'configuration controlled 3d designs of mechanical parts and assemblies' ) ;
#163 = DIRECTION ( 'NONE',  ( 4.275831445896959482E-31, 1.000000000000000000, 1.224646799147353207E-16 ) ) ;
#164 = CARTESIAN_POINT ( 'NONE',  ( 3.491481338843133355E-13, 4.799999999999990941, 100.0000000000000000 ) ) ;
#165 = DIRECTION ( 'NONE',  ( -4.275831445896958607E-31, -1.000000000000000000, -1.224646799147353207E-16 ) ) ;
#166 = ADVANCED_FACE ( 'NONE', ( #12 ), #76, .F. ) ;
#167 = PRODUCT ( '372631', '372631', '', ( #101 ) ) ;
#168 = DIRECTION ( 'NONE',  ( 3.491481338843133355E-15, -1.224646799147353207E-16, 1.000000000000000000 ) ) ;
#169 = AXIS2_PLACEMENT_3D ( 'NONE', #24, #180, #105 ) ;
#170 = APPROVAL_PERSON_ORGANIZATION ( #155, #199, #18 ) ;
#171 = PERSON_AND_ORGANIZATION_ROLE ( 'creator' ) ;
#172 = PERSON_AND_ORGANIZATION ( #62, #74 ) ;
#173 = APPLICATION_PROTOCOL_DEFINITION ( 'international standard', 'config_control_design', 1994, #90 ) ;
#174 = ORIENTED_EDGE ( 'NONE', *, *, #128, .T. ) ;
#175 = ADVANCED_FACE ( 'NONE', ( #39 ), #42, .F. ) ;
#176 = CIRCLE ( 'NONE', #85, 5.999999999999996447 ) ;
#177 = EDGE_LOOP ( 'NONE', ( #118 ) ) ;
#178 = CC_DESIGN_DATE_AND_TIME_ASSIGNMENT ( #142, #80, ( #61 ) ) ;
#179 = EDGE_LOOP ( 'NONE', ( #117 ) ) ;
#180 = DIRECTION ( 'NONE',  ( -3.491481338843133355E-15, 1.224646799147353207E-16, -1.000000000000000000 ) ) ;
#181 = DIRECTION ( 'NONE',  ( 3.491481338843133355E-15, -1.224646799147353207E-16, 1.000000000000000000 ) ) ;
#182 = LOCAL_TIME ( 9, 40, 42.00000000000000000, #68 ) ;
#183 = DIRECTION ( 'NONE',  ( -3.491481338843133355E-15, 1.224646799147353207E-16, -1.000000000000000000 ) ) ;
#184 = VERTEX_POINT ( 'NONE', #11 ) ;
#185 = CLOSED_SHELL ( 'NONE', ( #175, #95, #83, #53 ) ) ;
#186 = COORDINATED_UNIVERSAL_TIME_OFFSET ( 1, 0, .AHEAD. ) ;
#187 = CALENDAR_DATE ( 2021, 8, 12 ) ;
#188 = APPLICATION_PROTOCOL_DEFINITION ( 'international standard', 'config_control_design', 1994, #162 ) ;
#189 = APPROVAL_DATE_TIME ( #2, #48 ) ;
#190 = PLANE ( 'NONE',  #149 ) ;
#191 = ORIENTED_EDGE ( 'NONE', *, *, #145, .F. ) ;
#192 = APPROVAL_PERSON_ORGANIZATION ( #113, #48, #64 ) ;
#193 = EDGE_LOOP ( 'NONE', ( #194 ) ) ;
#194 = ORIENTED_EDGE ( 'NONE', *, *, #19, .T. ) ;
#195 = UNCERTAINTY_MEASURE_WITH_UNIT (LENGTH_MEASURE( 1.000000000000000082E-05 ), #38, 'distance_accuracy_value', 'NONE');
#196 = AXIS2_PLACEMENT_3D ( 'NONE', #138, #120, #60 ) ;
#197 = DIRECTION ( 'NONE',  ( -4.275831445896958607E-31, -1.000000000000000000, -1.224646799147353207E-16 ) ) ;
#198 = FACE_OUTER_BOUND ( 'NONE', #21, .T. ) ;
#199 = APPROVAL ( #82, 'UNSPECIFIED' ) ;
#200 = CARTESIAN_POINT ( 'NONE',  ( 1.780655482809997885E-13, 5.999999999999990230, 51.00000000000000000 ) ) ;
#201 = FACE_OUTER_BOUND ( 'NONE', #52, .T. ) ;
#202 = VERTEX_POINT ( 'NONE', #164 ) ;
#203 = PERSON_AND_ORGANIZATION_ROLE ( 'design_supplier' ) ;
ENDSEC;
END-ISO-10303-21;
