ISO-10303-21;
HEADER;
FILE_DESCRIPTION (( 'STEP AP203' ),
    '1' );
FILE_NAME ('372630.step',
    '2021-12-08T08:40:42',
    ( '' ),
    ( '' ),
    'SwSTEP 2.0',
    'SolidWorks 2019',
    '' );
FILE_SCHEMA (( 'CONFIG_CONTROL_DESIGN' ));
ENDSEC;

DATA;
#1 = DIRECTION ( 'NONE',  ( 4.275831445896959482E-31, 1.000000000000000000, 1.224646799147353207E-16 ) ) ;
#2 = DIRECTION ( 'NONE',  ( 4.275831445896958607E-31, 1.000000000000000000, 1.224646799147353207E-16 ) ) ;
#3 = PRODUCT_RELATED_PRODUCT_CATEGORY ( 'detail', '', ( #28 ) ) ;
#4 = FACE_OUTER_BOUND ( 'NONE', #70, .T. ) ;
#5 = CC_DESIGN_APPROVAL ( #89, ( #13 ) ) ;
#6 = CALENDAR_DATE ( 2021, 8, 12 ) ;
#7 = MANIFOLD_SOLID_BREP ( 'Corps-Déplacer/Copier1[1]', #194 ) ;
#8 = DATE_TIME_ROLE ( 'classification_date' ) ;
#9 = AXIS2_PLACEMENT_3D ( 'NONE', #132, #179, #177 ) ;
#10 = ORIENTED_EDGE ( 'NONE', *, *, #48, .T. ) ;
#11 = ORGANIZATION ( 'UNSPECIFIED', 'UNSPECIFIED', '' ) ;
#12 = PERSON ( 'UNSPECIFIED', 'UNSPECIFIED', 'UNSPECIFIED', ('UNSPECIFIED'), ('UNSPECIFIED'), ('UNSPECIFIED') ) ;
#13 = PRODUCT_DEFINITION ( 'UNKNOWN', '', #139, #175 ) ;
#14 =( NAMED_UNIT ( * ) SI_UNIT ( $, .STERADIAN. ) SOLID_ANGLE_UNIT ( ) );
#15 = EDGE_CURVE ( 'NONE', #16, #16, #98, .T. ) ;
#16 = VERTEX_POINT ( 'NONE', #47 ) ;
#17 =( LENGTH_UNIT ( ) NAMED_UNIT ( * ) SI_UNIT ( .MILLI., .METRE. ) );
#18 = CARTESIAN_POINT ( 'NONE',  ( 0.0000000000000000000, 0.0000000000000000000, 0.0000000000000000000 ) ) ;
#19 = DATE_AND_TIME ( #198, #181 ) ;
#20 = APPLICATION_PROTOCOL_DEFINITION ( 'international standard', 'config_control_design', 1994, #66 ) ;
#21 = EDGE_LOOP ( 'NONE', ( #10 ) ) ;
#22 = CIRCLE ( 'NONE', #76, 5.999999999999991118 ) ;
#23 = APPROVAL_ROLE ( '' ) ;
#24 = ORIENTED_EDGE ( 'NONE', *, *, #15, .T. ) ;
#25 = COORDINATED_UNIVERSAL_TIME_OFFSET ( 1, 0, .AHEAD. ) ;
#26 = DIRECTION ( 'NONE',  ( 0.0000000000000000000, 1.000000000000000000, 0.0000000000000000000 ) ) ;
#27 = DIRECTION ( 'NONE',  ( 3.491481338843133355E-15, -1.224646799147353207E-16, 1.000000000000000000 ) ) ;
#28 = PRODUCT ( '372630', '372630', '', ( #140 ) ) ;
#29 = CARTESIAN_POINT ( 'NONE',  ( -1.068961779941895936E-30, 3.749413200789030543E-32, -3.061628220805801239E-16 ) ) ;
#30 = DIRECTION ( 'NONE',  ( 3.491481338843133355E-15, -1.224646799147353207E-16, 1.000000000000000000 ) ) ;
#31 = CARTESIAN_POINT ( 'NONE',  ( 2.793185071074506684E-13, 3.599423478388445122E-32, 80.00000000000000000 ) ) ;
#32 = ADVANCED_FACE ( 'NONE', ( #143 ), #40, .F. ) ;
#33 = APPROVAL_PERSON_ORGANIZATION ( #195, #89, #138 ) ;
#34 = CALENDAR_DATE ( 2021, 8, 12 ) ;
#35 = PERSON_AND_ORGANIZATION ( #12, #11 ) ;
#36 = APPROVAL_DATE_TIME ( #156, #127 ) ;
#37 = ORIENTED_EDGE ( 'NONE', *, *, #158, .F. ) ;
#38 = CC_DESIGN_APPROVAL ( #197, ( #93 ) ) ;
#39 = PERSON_AND_ORGANIZATION ( #12, #11 ) ;
#40 = PLANE ( 'NONE',  #159 ) ;
#41 = CARTESIAN_POINT ( 'NONE',  ( 1.047444401652940007E-13, -3.673940397442059178E-15, 30.00000000000000000 ) ) ;
#42 = DIRECTION ( 'NONE',  ( 4.275831445896958607E-31, 1.000000000000000000, 1.224646799147353207E-16 ) ) ;
#43 = CC_DESIGN_SECURITY_CLASSIFICATION ( #93, ( #139 ) ) ;
#44 = CARTESIAN_POINT ( 'NONE',  ( 2.793185071074506684E-13, -9.797174393178826052E-15, 80.00000000000000000 ) ) ;
#45 = CC_DESIGN_PERSON_AND_ORGANIZATION_ASSIGNMENT ( #55, #110, ( #13 ) ) ;
#46 = PLANE ( 'NONE',  #58 ) ;
#47 = CARTESIAN_POINT ( 'NONE',  ( 1.047444401652940007E-13, 5.999999999999991118, 30.00000000000000000 ) ) ;
#48 = EDGE_CURVE ( 'NONE', #121, #121, #103, .T. ) ;
#49 = FACE_OUTER_BOUND ( 'NONE', #196, .T. ) ;
#50 = APPROVAL_DATE_TIME ( #19, #89 ) ;
#51 = LOCAL_TIME ( 9, 40, 42.00000000000000000, #125 ) ;
#52 = DATE_AND_TIME ( #170, #147 ) ;
#53 = EDGE_LOOP ( 'NONE', ( #160 ) ) ;
#54 = PERSON_AND_ORGANIZATION_ROLE ( 'design_owner' ) ;
#55 = PERSON_AND_ORGANIZATION ( #12, #11 ) ;
#56 = DIRECTION ( 'NONE',  ( -3.491481338843133355E-15, 1.224646799147353207E-16, -1.000000000000000000 ) ) ;
#57 = CC_DESIGN_PERSON_AND_ORGANIZATION_ASSIGNMENT ( #35, #68, ( #139 ) ) ;
#58 = AXIS2_PLACEMENT_3D ( 'NONE', #31, #56, #2 ) ;
#59 = AXIS2_PLACEMENT_3D ( 'NONE', #60, #78, #189 ) ;
#60 = CARTESIAN_POINT ( 'NONE',  ( 2.751287295008388832E-13, -9.650216777281142612E-15, 78.79999999999999716 ) ) ;
#61 = ADVANCED_FACE ( 'NONE', ( #172, #94 ), #161, .T. ) ;
#62 = FACE_OUTER_BOUND ( 'NONE', #74, .T. ) ;
#63 = DIRECTION ( 'NONE',  ( -4.275831445896958607E-31, -1.000000000000000000, -1.224646799147353207E-16 ) ) ;
#64 = DIRECTION ( 'NONE',  ( -3.491481338843133355E-15, 1.224646799147353207E-16, -1.000000000000000000 ) ) ;
#65 = APPROVAL_DATE_TIME ( #141, #197 ) ;
#66 = APPLICATION_CONTEXT ( 'configuration controlled 3d designs of mechanical parts and assemblies' ) ;
#67 = EDGE_CURVE ( 'NONE', #148, #148, #22, .T. ) ;
#68 = PERSON_AND_ORGANIZATION_ROLE ( 'design_supplier' ) ;
#69 = AXIS2_PLACEMENT_3D ( 'NONE', #190, #97, #163 ) ;
#70 = EDGE_LOOP ( 'NONE', ( #37 ) ) ;
#71 = SECURITY_CLASSIFICATION_LEVEL ( 'unclassified' ) ;
#72 = ORIENTED_EDGE ( 'NONE', *, *, #73, .T. ) ;
#73 = EDGE_CURVE ( 'NONE', #119, #119, #203, .T. ) ;
#74 = EDGE_LOOP ( 'NONE', ( #173 ) ) ;
#75 = CARTESIAN_POINT ( 'NONE',  ( -2.137923559883791872E-30, 7.498826401578061086E-32, -6.123256441611602477E-16 ) ) ;
#76 = AXIS2_PLACEMENT_3D ( 'NONE', #75, #145, #1 ) ;
#77 = CC_DESIGN_PERSON_AND_ORGANIZATION_ASSIGNMENT ( #39, #54, ( #28 ) ) ;
#78 = DIRECTION ( 'NONE',  ( -3.491481338843133355E-15, 1.224646799147353207E-16, -1.000000000000000000 ) ) ;
#79 = AXIS2_PLACEMENT_3D ( 'NONE', #41, #96, #200 ) ;
#80 = CARTESIAN_POINT ( 'NONE',  ( 1.047444401652940007E-13, 5.999999999999991118, 30.00000000000000000 ) ) ;
#81 = CARTESIAN_POINT ( 'NONE',  ( 2.793185071074506684E-13, 4.799999999999991829, 80.00000000000000000 ) ) ;
#82 = CC_DESIGN_DATE_AND_TIME_ASSIGNMENT ( #52, #8, ( #93 ) ) ;
#83 = DIRECTION ( 'NONE',  ( 0.0000000000000000000, 0.0000000000000000000, 1.000000000000000000 ) ) ;
#84 = LOCAL_TIME ( 9, 40, 42.00000000000000000, #25 ) ;
#85 = CC_DESIGN_PERSON_AND_ORGANIZATION_ASSIGNMENT ( #106, #193, ( #139 ) ) ;
#86 = DATE_TIME_ROLE ( 'creation_date' ) ;
#87 = APPROVAL_PERSON_ORGANIZATION ( #171, #197, #88 ) ;
#88 = APPROVAL_ROLE ( '' ) ;
#89 = APPROVAL ( #166, 'UNSPECIFIED' ) ;
#90 = DIRECTION ( 'NONE',  ( -3.491481338843133355E-15, 1.224646799147353207E-16, -1.000000000000000000 ) ) ;
#91 = APPLICATION_CONTEXT ( 'configuration controlled 3d designs of mechanical parts and assemblies' ) ;
#92 = ORIENTED_EDGE ( 'NONE', *, *, #15, .F. ) ;
#93 = SECURITY_CLASSIFICATION ( '', '', #71 ) ;
#94 = FACE_OUTER_BOUND ( 'NONE', #112, .T. ) ;
#95 = ADVANCED_FACE ( 'NONE', ( #62, #134 ), #144, .T. ) ;
#96 = DIRECTION ( 'NONE',  ( -3.491481338843133355E-15, 1.224646799147353207E-16, -1.000000000000000000 ) ) ;
#97 = DIRECTION ( 'NONE',  ( -3.491481338843133355E-15, 1.224646799147353207E-16, -1.000000000000000000 ) ) ;
#98 = CIRCLE ( 'NONE', #120, 5.999999999999994671 ) ;
#99 = PRODUCT_DEFINITION_SHAPE ( 'NONE', 'NONE',  #13 ) ;
#100 = PLANE ( 'NONE',  #152 ) ;
#101 = CARTESIAN_POINT ( 'NONE',  ( 2.751287295008388832E-13, 5.999999999999991118, 78.79999999999999716 ) ) ;
#102 =( NAMED_UNIT ( * ) PLANE_ANGLE_UNIT ( ) SI_UNIT ( $, .RADIAN. ) );
#103 = CIRCLE ( 'NONE', #79, 5.999999999999994671 ) ;
#104 = PERSON_AND_ORGANIZATION ( #12, #11 ) ;
#105 = SHAPE_DEFINITION_REPRESENTATION ( #99, #201 ) ;
#106 = PERSON_AND_ORGANIZATION ( #12, #11 ) ;
#107 = CC_DESIGN_DATE_AND_TIME_ASSIGNMENT ( #183, #86, ( #13 ) ) ;
#108 = AXIS2_PLACEMENT_3D ( 'NONE', #44, #64, #115 ) ;
#109 = EDGE_LOOP ( 'NONE', ( #184 ) ) ;
#110 = PERSON_AND_ORGANIZATION_ROLE ( 'creator' ) ;
#111 = DIRECTION ( 'NONE',  ( -4.275831445896958607E-31, -1.000000000000000000, -1.224646799147353207E-16 ) ) ;
#112 = EDGE_LOOP ( 'NONE', ( #72 ) ) ;
#113 = AXIS2_PLACEMENT_3D ( 'NONE', #129, #186, #42 ) ;
#114 = EDGE_LOOP ( 'NONE', ( #142 ) ) ;
#115 = DIRECTION ( 'NONE',  ( 0.0000000000000000000, 1.000000000000000000, 0.0000000000000000000 ) ) ;
#116 = UNCERTAINTY_MEASURE_WITH_UNIT (LENGTH_MEASURE( 1.000000000000000082E-05 ), #17, 'distance_accuracy_value', 'NONE');
#117 = FACE_OUTER_BOUND ( 'NONE', #109, .T. ) ;
#118 = ADVANCED_FACE ( 'NONE', ( #4 ), #46, .F. ) ;
#119 = VERTEX_POINT ( 'NONE', #101 ) ;
#120 = AXIS2_PLACEMENT_3D ( 'NONE', #174, #90, #26 ) ;
#121 = VERTEX_POINT ( 'NONE', #80 ) ;
#122 = CC_DESIGN_PERSON_AND_ORGANIZATION_ASSIGNMENT ( #104, #153, ( #93 ) ) ;
#123 = PERSON_AND_ORGANIZATION ( #12, #11 ) ;
#124 = COORDINATED_UNIVERSAL_TIME_OFFSET ( 1, 0, .AHEAD. ) ;
#125 = COORDINATED_UNIVERSAL_TIME_OFFSET ( 1, 0, .AHEAD. ) ;
#126 = LOCAL_TIME ( 9, 40, 42.00000000000000000, #124 ) ;
#127 = APPROVAL ( #182, 'UNSPECIFIED' ) ;
#128 = EDGE_LOOP ( 'NONE', ( #92 ) ) ;
#129 = CARTESIAN_POINT ( 'NONE',  ( 0.0000000000000000000, 0.0000000000000000000, 0.0000000000000000000 ) ) ;
#130 = PLANE ( 'NONE',  #191 ) ;
#131 = APPROVAL_PERSON_ORGANIZATION ( #123, #127, #23 ) ;
#132 = CARTESIAN_POINT ( 'NONE',  ( 2.793185071074506684E-13, -9.797174393178826052E-15, 80.00000000000000000 ) ) ;
#133 = ADVANCED_FACE ( 'NONE', ( #49 ), #130, .T. ) ;
#134 = FACE_BOUND ( 'NONE', #114, .T. ) ;
#135 =( GEOMETRIC_REPRESENTATION_CONTEXT ( 3 ) GLOBAL_UNCERTAINTY_ASSIGNED_CONTEXT ( ( #116 ) ) GLOBAL_UNIT_ASSIGNED_CONTEXT ( ( #17, #102, #14 ) ) REPRESENTATION_CONTEXT ( 'NONE', 'WORKASPACE' ) );
#136 = FACE_OUTER_BOUND ( 'NONE', #21, .T. ) ;
#137 = COORDINATED_UNIVERSAL_TIME_OFFSET ( 1, 0, .AHEAD. ) ;
#138 = APPROVAL_ROLE ( '' ) ;
#139 = PRODUCT_DEFINITION_FORMATION_WITH_SPECIFIED_SOURCE ( 'ANY', '', #28, .NOT_KNOWN. ) ;
#140 = MECHANICAL_CONTEXT ( 'NONE', #91, 'mechanical' ) ;
#141 = DATE_AND_TIME ( #6, #51 ) ;
#142 = ORIENTED_EDGE ( 'NONE', *, *, #158, .T. ) ;
#143 = FACE_OUTER_BOUND ( 'NONE', #185, .T. ) ;
#144 = CONICAL_SURFACE ( 'NONE', #9, 4.800000000000001599, 0.7853981633974453924 ) ;
#145 = DIRECTION ( 'NONE',  ( -3.491481338843133355E-15, 1.224646799147353207E-16, -1.000000000000000000 ) ) ;
#146 = ADVANCED_FACE ( 'NONE', ( #117 ), #100, .F. ) ;
#147 = LOCAL_TIME ( 9, 40, 42.00000000000000000, #137 ) ;
#148 = VERTEX_POINT ( 'NONE', #180 ) ;
#149 = MANIFOLD_SOLID_BREP ( 'Corps-Déplacer/Copier1[2]', #155 ) ;
#150 = FACE_OUTER_BOUND ( 'NONE', #53, .T. ) ;
#151 = DIRECTION ( 'NONE',  ( 1.000000000000000000, 0.0000000000000000000, 0.0000000000000000000 ) ) ;
#152 = AXIS2_PLACEMENT_3D ( 'NONE', #29, #165, #188 ) ;
#153 = PERSON_AND_ORGANIZATION_ROLE ( 'classification_officer' ) ;
#154 = COORDINATED_UNIVERSAL_TIME_OFFSET ( 1, 0, .AHEAD. ) ;
#155 = CLOSED_SHELL ( 'NONE', ( #146, #167, #133 ) ) ;
#156 = DATE_AND_TIME ( #34, #84 ) ;
#157 = ORIENTED_EDGE ( 'NONE', *, *, #48, .F. ) ;
#158 = EDGE_CURVE ( 'NONE', #202, #202, #164, .T. ) ;
#159 = AXIS2_PLACEMENT_3D ( 'NONE', #199, #27, #111 ) ;
#160 = ORIENTED_EDGE ( 'NONE', *, *, #67, .F. ) ;
#161 = CYLINDRICAL_SURFACE ( 'NONE', #113, 5.999999999999998224 ) ;
#162 = APPLICATION_PROTOCOL_DEFINITION ( 'international standard', 'config_control_design', 1994, #91 ) ;
#163 = DIRECTION ( 'NONE',  ( 4.275831445896958607E-31, 1.000000000000000000, 1.224646799147353207E-16 ) ) ;
#164 = CIRCLE ( 'NONE', #108, 4.800000000000001599 ) ;
#165 = DIRECTION ( 'NONE',  ( 3.491481338843133355E-15, -1.224646799147353207E-16, 1.000000000000000000 ) ) ;
#166 = APPROVAL_STATUS ( 'not_yet_approved' ) ;
#167 = ADVANCED_FACE ( 'NONE', ( #150, #136 ), #176, .T. ) ;
#168 = APPROVAL_STATUS ( 'not_yet_approved' ) ;
#169 = CALENDAR_DATE ( 2021, 8, 12 ) ;
#170 = CALENDAR_DATE ( 2021, 8, 12 ) ;
#171 = PERSON_AND_ORGANIZATION ( #12, #11 ) ;
#172 = FACE_OUTER_BOUND ( 'NONE', #128, .T. ) ;
#173 = ORIENTED_EDGE ( 'NONE', *, *, #73, .F. ) ;
#174 = CARTESIAN_POINT ( 'NONE',  ( 1.047444401652940007E-13, -3.673940397442059178E-15, 30.00000000000000000 ) ) ;
#175 = DESIGN_CONTEXT ( 'detailed design', #66, 'design' ) ;
#176 = CYLINDRICAL_SURFACE ( 'NONE', #69, 5.999999999999992895 ) ;
#177 = DIRECTION ( 'NONE',  ( 0.0000000000000000000, 1.000000000000000000, 0.0000000000000000000 ) ) ;
#178 = CC_DESIGN_APPROVAL ( #127, ( #139 ) ) ;
#179 = DIRECTION ( 'NONE',  ( -3.491481338843133355E-15, 1.224646799147353207E-16, -1.000000000000000000 ) ) ;
#180 = CARTESIAN_POINT ( 'NONE',  ( 4.275753076543797008E-31, 5.999999999999991118, 1.224624353272506412E-16 ) ) ;
#181 = LOCAL_TIME ( 9, 40, 42.00000000000000000, #154 ) ;
#182 = APPROVAL_STATUS ( 'not_yet_approved' ) ;
#183 = DATE_AND_TIME ( #169, #126 ) ;
#184 = ORIENTED_EDGE ( 'NONE', *, *, #67, .T. ) ;
#185 = EDGE_LOOP ( 'NONE', ( #24 ) ) ;
#186 = DIRECTION ( 'NONE',  ( -3.491481338843133355E-15, 1.224646799147353207E-16, -1.000000000000000000 ) ) ;
#187 = AXIS2_PLACEMENT_3D ( 'NONE', #18, #83, #151 ) ;
#188 = DIRECTION ( 'NONE',  ( -4.275831445896958607E-31, -1.000000000000000000, -1.224646799147353207E-16 ) ) ;
#189 = DIRECTION ( 'NONE',  ( 0.0000000000000000000, 1.000000000000000000, 0.0000000000000000000 ) ) ;
#190 = CARTESIAN_POINT ( 'NONE',  ( 0.0000000000000000000, 0.0000000000000000000, 0.0000000000000000000 ) ) ;
#191 = AXIS2_PLACEMENT_3D ( 'NONE', #192, #30, #63 ) ;
#192 = CARTESIAN_POINT ( 'NONE',  ( 1.047444401652940007E-13, 4.499279347985564065E-32, 30.00000000000000000 ) ) ;
#193 = PERSON_AND_ORGANIZATION_ROLE ( 'creator' ) ;
#194 = CLOSED_SHELL ( 'NONE', ( #32, #61, #95, #118 ) ) ;
#195 = PERSON_AND_ORGANIZATION ( #12, #11 ) ;
#196 = EDGE_LOOP ( 'NONE', ( #157 ) ) ;
#197 = APPROVAL ( #168, 'UNSPECIFIED' ) ;
#198 = CALENDAR_DATE ( 2021, 8, 12 ) ;
#199 = CARTESIAN_POINT ( 'NONE',  ( 1.047444401652940007E-13, 4.499279347985564065E-32, 30.00000000000000000 ) ) ;
#200 = DIRECTION ( 'NONE',  ( 0.0000000000000000000, 1.000000000000000000, 0.0000000000000000000 ) ) ;
#201 = ADVANCED_BREP_SHAPE_REPRESENTATION ( '372630', ( #7, #149, #187 ), #135 ) ;
#202 = VERTEX_POINT ( 'NONE', #81 ) ;
#203 = CIRCLE ( 'NONE', #59, 6.000000000000000888 ) ;
ENDSEC;
END-ISO-10303-21;
