ISO-10303-21;
HEADER;
FILE_DESCRIPTION (( 'STEP AP203' ),
    '1' );
FILE_NAME ('372629.step',
    '2021-12-08T08:40:41',
    ( '' ),
    ( '' ),
    'SwSTEP 2.0',
    'SolidWorks 2019',
    '' );
FILE_SCHEMA (( 'CONFIG_CONTROL_DESIGN' ));
ENDSEC;

DATA;
#1 = DIRECTION ( 'NONE',  ( -3.491481338843133355E-15, 1.224646799147353207E-16, -1.000000000000000000 ) ) ;
#2 = DIRECTION ( 'NONE',  ( -3.491481338843133355E-15, 1.224646799147353207E-16, -1.000000000000000000 ) ) ;
#3 = CARTESIAN_POINT ( 'NONE',  ( 1.047444401652940007E-13, 4.999999999999990230, 30.00000000000000000 ) ) ;
#4 = DIRECTION ( 'NONE',  ( -4.275831445896958607E-31, -1.000000000000000000, -1.224646799147353207E-16 ) ) ;
#5 = LOCAL_TIME ( 9, 40, 41.00000000000000000, #23 ) ;
#6 = COORDINATED_UNIVERSAL_TIME_OFFSET ( 1, 0, .AHEAD. ) ;
#7 = MECHANICAL_CONTEXT ( 'NONE', #101, 'mechanical' ) ;
#8 = CC_DESIGN_APPROVAL ( #184, ( #185 ) ) ;
#9 = SHAPE_DEFINITION_REPRESENTATION ( #85, #62 ) ;
#10 = PERSON_AND_ORGANIZATION_ROLE ( 'creator' ) ;
#11 = ORIENTED_EDGE ( 'NONE', *, *, #171, .F. ) ;
#12 = ORIENTED_EDGE ( 'NONE', *, *, #177, .F. ) ;
#13 = CC_DESIGN_APPROVAL ( #53, ( #70 ) ) ;
#14 = VERTEX_POINT ( 'NONE', #66 ) ;
#15 = DIRECTION ( 'NONE',  ( 4.275831445896958607E-31, 1.000000000000000000, 1.224646799147353207E-16 ) ) ;
#16 = DIRECTION ( 'NONE',  ( 4.275831445896958607E-31, 1.000000000000000000, 1.224646799147353207E-16 ) ) ;
#17 = VERTEX_POINT ( 'NONE', #3 ) ;
#18 = CARTESIAN_POINT ( 'NONE',  ( 0.0000000000000000000, 0.0000000000000000000, 0.0000000000000000000 ) ) ;
#19 =( GEOMETRIC_REPRESENTATION_CONTEXT ( 3 ) GLOBAL_UNCERTAINTY_ASSIGNED_CONTEXT ( ( #24 ) ) GLOBAL_UNIT_ASSIGNED_CONTEXT ( ( #68, #132, #84 ) ) REPRESENTATION_CONTEXT ( 'NONE', 'WORKASPACE' ) );
#20 = PERSON_AND_ORGANIZATION_ROLE ( 'classification_officer' ) ;
#21 = EDGE_LOOP ( 'NONE', ( #103 ) ) ;
#22 = AXIS2_PLACEMENT_3D ( 'NONE', #173, #97, #77 ) ;
#23 = COORDINATED_UNIVERSAL_TIME_OFFSET ( 1, 0, .AHEAD. ) ;
#24 = UNCERTAINTY_MEASURE_WITH_UNIT (LENGTH_MEASURE( 1.000000000000000082E-05 ), #68, 'distance_accuracy_value', 'NONE');
#25 = APPROVAL_DATE_TIME ( #186, #53 ) ;
#26 = FACE_OUTER_BOUND ( 'NONE', #40, .T. ) ;
#27 = EDGE_LOOP ( 'NONE', ( #29 ) ) ;
#28 = ADVANCED_FACE ( 'NONE', ( #26 ), #120, .F. ) ;
#29 = ORIENTED_EDGE ( 'NONE', *, *, #194, .F. ) ;
#30 = DIRECTION ( 'NONE',  ( 0.0000000000000000000, 1.000000000000000000, 0.0000000000000000000 ) ) ;
#31 = CC_DESIGN_DATE_AND_TIME_ASSIGNMENT ( #197, #44, ( #70 ) ) ;
#32 = CC_DESIGN_PERSON_AND_ORGANIZATION_ASSIGNMENT ( #163, #20, ( #185 ) ) ;
#33 = CARTESIAN_POINT ( 'NONE',  ( 1.047444401652940007E-13, 3.749399456654634714E-32, 30.00000000000000000 ) ) ;
#34 = CARTESIAN_POINT ( 'NONE',  ( 2.618611004132350143E-13, -9.184850993605148733E-15, 75.00000000000000000 ) ) ;
#35 = AXIS2_PLACEMENT_3D ( 'NONE', #36, #160, #80 ) ;
#36 = CARTESIAN_POINT ( 'NONE',  ( 1.047444401652940007E-13, -3.673940397442059178E-15, 30.00000000000000000 ) ) ;
#37 = DIRECTION ( 'NONE',  ( 3.491481338843133355E-15, -1.224646799147353207E-16, 1.000000000000000000 ) ) ;
#38 = APPROVAL_STATUS ( 'not_yet_approved' ) ;
#39 = PERSON_AND_ORGANIZATION_ROLE ( 'design_supplier' ) ;
#40 = EDGE_LOOP ( 'NONE', ( #183 ) ) ;
#41 = COORDINATED_UNIVERSAL_TIME_OFFSET ( 1, 0, .AHEAD. ) ;
#42 = AXIS2_PLACEMENT_3D ( 'NONE', #67, #37, #95 ) ;
#43 = EDGE_LOOP ( 'NONE', ( #12 ) ) ;
#44 = DATE_TIME_ROLE ( 'creation_date' ) ;
#45 = EDGE_LOOP ( 'NONE', ( #107 ) ) ;
#46 = AXIS2_PLACEMENT_3D ( 'NONE', #162, #59, #200 ) ;
#47 = CARTESIAN_POINT ( 'NONE',  ( 2.618611004132350143E-13, -9.184850993605148733E-15, 75.00000000000000000 ) ) ;
#48 = CARTESIAN_POINT ( 'NONE',  ( 1.047444401652940007E-13, 4.999999999999990230, 30.00000000000000000 ) ) ;
#49 = CARTESIAN_POINT ( 'NONE',  ( -8.551702076470477431E-31, 2.999533309458100644E-32, -2.449304821232124019E-16 ) ) ;
#50 = DIRECTION ( 'NONE',  ( -3.491481338843133355E-15, 1.224646799147353207E-16, -1.000000000000000000 ) ) ;
#51 = DIRECTION ( 'NONE',  ( 0.0000000000000000000, 1.000000000000000000, 0.0000000000000000000 ) ) ;
#52 = PERSON_AND_ORGANIZATION ( #152, #161 ) ;
#53 = APPROVAL ( #178, 'UNSPECIFIED' ) ;
#54 = COORDINATED_UNIVERSAL_TIME_OFFSET ( 1, 0, .AHEAD. ) ;
#55 = AXIS2_PLACEMENT_3D ( 'NONE', #47, #50, #30 ) ;
#56 = PERSON_AND_ORGANIZATION ( #152, #161 ) ;
#57 = EDGE_LOOP ( 'NONE', ( #135 ) ) ;
#58 = APPLICATION_PROTOCOL_DEFINITION ( 'international standard', 'config_control_design', 1994, #122 ) ;
#59 = DIRECTION ( 'NONE',  ( 0.0000000000000000000, 0.0000000000000000000, 1.000000000000000000 ) ) ;
#60 = FACE_OUTER_BOUND ( 'NONE', #45, .T. ) ;
#61 = LOCAL_TIME ( 9, 40, 41.00000000000000000, #41 ) ;
#62 = ADVANCED_BREP_SHAPE_REPRESENTATION ( '372629', ( #168, #100, #46 ), #19 ) ;
#63 = ADVANCED_FACE ( 'NONE', ( #60 ), #156, .F. ) ;
#64 = PRODUCT_RELATED_PRODUCT_CATEGORY ( 'detail', '', ( #179 ) ) ;
#65 = CIRCLE ( 'NONE', #180, 4.999999999999990230 ) ;
#66 = CARTESIAN_POINT ( 'NONE',  ( 2.583696190743918430E-13, 4.999999999999990230, 74.00000000000000000 ) ) ;
#67 = CARTESIAN_POINT ( 'NONE',  ( 1.047444401652940007E-13, 3.749399456654634714E-32, 30.00000000000000000 ) ) ;
#68 =( LENGTH_UNIT ( ) NAMED_UNIT ( * ) SI_UNIT ( .MILLI., .METRE. ) );
#69 = CC_DESIGN_APPROVAL ( #94, ( #154 ) ) ;
#70 = PRODUCT_DEFINITION ( 'UNKNOWN', '', #154, #153 ) ;
#71 = APPROVAL_ROLE ( '' ) ;
#72 = CALENDAR_DATE ( 2021, 8, 12 ) ;
#73 = ORIENTED_EDGE ( 'NONE', *, *, #194, .T. ) ;
#74 = CLOSED_SHELL ( 'NONE', ( #63, #75, #144, #28 ) ) ;
#75 = ADVANCED_FACE ( 'NONE', ( #176, #128 ), #138, .T. ) ;
#76 = AXIS2_PLACEMENT_3D ( 'NONE', #33, #142, #4 ) ;
#77 = DIRECTION ( 'NONE',  ( 4.275831445896958607E-31, 1.000000000000000000, 1.224646799147353207E-16 ) ) ;
#78 = VERTEX_POINT ( 'NONE', #190 ) ;
#79 = CARTESIAN_POINT ( 'NONE',  ( 1.047444401652940007E-13, -3.673940397442059178E-15, 30.00000000000000000 ) ) ;
#80 = DIRECTION ( 'NONE',  ( 0.0000000000000000000, 1.000000000000000000, 0.0000000000000000000 ) ) ;
#81 = CC_DESIGN_PERSON_AND_ORGANIZATION_ASSIGNMENT ( #52, #114, ( #179 ) ) ;
#82 = APPROVAL_PERSON_ORGANIZATION ( #143, #184, #87 ) ;
#83 = PLANE ( 'NONE',  #203 ) ;
#84 =( NAMED_UNIT ( * ) SI_UNIT ( $, .STERADIAN. ) SOLID_ANGLE_UNIT ( ) );
#85 = PRODUCT_DEFINITION_SHAPE ( 'NONE', 'NONE',  #70 ) ;
#86 = ADVANCED_FACE ( 'NONE', ( #98 ), #83, .F. ) ;
#87 = APPROVAL_ROLE ( '' ) ;
#88 = DATE_TIME_ROLE ( 'classification_date' ) ;
#89 = EDGE_LOOP ( 'NONE', ( #121 ) ) ;
#90 = ADVANCED_FACE ( 'NONE', ( #112 ), #113, .T. ) ;
#91 = CIRCLE ( 'NONE', #35, 4.999999999999993783 ) ;
#92 = DIRECTION ( 'NONE',  ( 3.491481338843133355E-15, -1.224646799147353207E-16, 1.000000000000000000 ) ) ;
#93 = LOCAL_TIME ( 9, 40, 41.00000000000000000, #6 ) ;
#94 = APPROVAL ( #116, 'UNSPECIFIED' ) ;
#95 = DIRECTION ( 'NONE',  ( -4.275831445896958607E-31, -1.000000000000000000, -1.224646799147353207E-16 ) ) ;
#96 = LOCAL_TIME ( 9, 40, 41.00000000000000000, #54 ) ;
#97 = DIRECTION ( 'NONE',  ( -3.491481338843133355E-15, 1.224646799147353207E-16, -1.000000000000000000 ) ) ;
#98 = FACE_OUTER_BOUND ( 'NONE', #89, .T. ) ;
#99 = FACE_OUTER_BOUND ( 'NONE', #117, .T. ) ;
#100 = MANIFOLD_SOLID_BREP ( 'Corps-Déplacer/Copier1[2]', #147 ) ;
#101 = APPLICATION_CONTEXT ( 'configuration controlled 3d designs of mechanical parts and assemblies' ) ;
#102 = DATE_AND_TIME ( #106, #5 ) ;
#103 = ORIENTED_EDGE ( 'NONE', *, *, #191, .T. ) ;
#104 = DATE_AND_TIME ( #72, #96 ) ;
#105 = AXIS2_PLACEMENT_3D ( 'NONE', #175, #1, #126 ) ;
#106 = CALENDAR_DATE ( 2021, 8, 12 ) ;
#107 = ORIENTED_EDGE ( 'NONE', *, *, #177, .T. ) ;
#108 = DIRECTION ( 'NONE',  ( -4.275831445896958607E-31, -1.000000000000000000, -1.224646799147353207E-16 ) ) ;
#109 = CC_DESIGN_PERSON_AND_ORGANIZATION_ASSIGNMENT ( #56, #10, ( #70 ) ) ;
#110 = CYLINDRICAL_SURFACE ( 'NONE', #22, 4.999999999999992006 ) ;
#111 = CIRCLE ( 'NONE', #55, 4.000000000000000000 ) ;
#112 = FACE_OUTER_BOUND ( 'NONE', #27, .T. ) ;
#113 = PLANE ( 'NONE',  #42 ) ;
#114 = PERSON_AND_ORGANIZATION_ROLE ( 'design_owner' ) ;
#115 = PERSON_AND_ORGANIZATION ( #152, #161 ) ;
#116 = APPROVAL_STATUS ( 'not_yet_approved' ) ;
#117 = EDGE_LOOP ( 'NONE', ( #73 ) ) ;
#118 = APPROVAL_ROLE ( '' ) ;
#119 = CC_DESIGN_SECURITY_CLASSIFICATION ( #185, ( #154 ) ) ;
#120 = PLANE ( 'NONE',  #174 ) ;
#121 = ORIENTED_EDGE ( 'NONE', *, *, #171, .T. ) ;
#122 = APPLICATION_CONTEXT ( 'configuration controlled 3d designs of mechanical parts and assemblies' ) ;
#123 = FACE_OUTER_BOUND ( 'NONE', #57, .T. ) ;
#124 = AXIS2_PLACEMENT_3D ( 'NONE', #34, #188, #51 ) ;
#125 = CARTESIAN_POINT ( 'NONE',  ( 4.275753076543797008E-31, 4.999999999999990230, 1.224624353272506412E-16 ) ) ;
#126 = DIRECTION ( 'NONE',  ( 0.0000000000000000000, 1.000000000000000000, 0.0000000000000000000 ) ) ;
#127 = LOCAL_TIME ( 9, 40, 41.00000000000000000, #129 ) ;
#128 = FACE_OUTER_BOUND ( 'NONE', #137, .T. ) ;
#129 = COORDINATED_UNIVERSAL_TIME_OFFSET ( 1, 0, .AHEAD. ) ;
#130 = CONICAL_SURFACE ( 'NONE', #124, 4.000000000000000000, 0.7853981633974473908 ) ;
#131 = PERSON_AND_ORGANIZATION ( #152, #161 ) ;
#132 =( NAMED_UNIT ( * ) PLANE_ANGLE_UNIT ( ) SI_UNIT ( $, .RADIAN. ) );
#133 = ADVANCED_FACE ( 'NONE', ( #195, #99 ), #110, .T. ) ;
#134 = PERSON_AND_ORGANIZATION_ROLE ( 'creator' ) ;
#135 = ORIENTED_EDGE ( 'NONE', *, *, #189, .F. ) ;
#136 = CC_DESIGN_PERSON_AND_ORGANIZATION_ASSIGNMENT ( #166, #39, ( #154 ) ) ;
#137 = EDGE_LOOP ( 'NONE', ( #201 ) ) ;
#138 = CYLINDRICAL_SURFACE ( 'NONE', #193, 4.999999999999996447 ) ;
#139 = CIRCLE ( 'NONE', #105, 4.999999999999999112 ) ;
#140 = VERTEX_POINT ( 'NONE', #48 ) ;
#141 = DIRECTION ( 'NONE',  ( -3.491481338843133355E-15, 1.224646799147353207E-16, -1.000000000000000000 ) ) ;
#142 = DIRECTION ( 'NONE',  ( 3.491481338843133355E-15, -1.224646799147353207E-16, 1.000000000000000000 ) ) ;
#143 = PERSON_AND_ORGANIZATION ( #152, #161 ) ;
#144 = ADVANCED_FACE ( 'NONE', ( #123, #202 ), #130, .T. ) ;
#145 = APPLICATION_PROTOCOL_DEFINITION ( 'international standard', 'config_control_design', 1994, #101 ) ;
#146 = CC_DESIGN_DATE_AND_TIME_ASSIGNMENT ( #102, #88, ( #185 ) ) ;
#147 = CLOSED_SHELL ( 'NONE', ( #86, #133, #90 ) ) ;
#148 = APPROVAL_DATE_TIME ( #164, #184 ) ;
#149 = CARTESIAN_POINT ( 'NONE',  ( 2.618611004132350143E-13, 2.999519565323700984E-32, 75.00000000000000000 ) ) ;
#150 = CALENDAR_DATE ( 2021, 8, 12 ) ;
#151 = CC_DESIGN_PERSON_AND_ORGANIZATION_ASSIGNMENT ( #115, #134, ( #154 ) ) ;
#152 = PERSON ( 'UNSPECIFIED', 'UNSPECIFIED', 'UNSPECIFIED', ('UNSPECIFIED'), ('UNSPECIFIED'), ('UNSPECIFIED') ) ;
#153 = DESIGN_CONTEXT ( 'detailed design', #122, 'design' ) ;
#154 = PRODUCT_DEFINITION_FORMATION_WITH_SPECIFIED_SOURCE ( 'ANY', '', #179, .NOT_KNOWN. ) ;
#155 = APPROVAL_PERSON_ORGANIZATION ( #182, #94, #118 ) ;
#156 = PLANE ( 'NONE',  #76 ) ;
#157 = VERTEX_POINT ( 'NONE', #125 ) ;
#158 = DIRECTION ( 'NONE',  ( -3.491481338843133355E-15, 1.224646799147353207E-16, -1.000000000000000000 ) ) ;
#159 = DIRECTION ( 'NONE',  ( 0.0000000000000000000, 1.000000000000000000, 0.0000000000000000000 ) ) ;
#160 = DIRECTION ( 'NONE',  ( -3.491481338843133355E-15, 1.224646799147353207E-16, -1.000000000000000000 ) ) ;
#161 = ORGANIZATION ( 'UNSPECIFIED', 'UNSPECIFIED', '' ) ;
#162 = CARTESIAN_POINT ( 'NONE',  ( 0.0000000000000000000, 0.0000000000000000000, 0.0000000000000000000 ) ) ;
#163 = PERSON_AND_ORGANIZATION ( #152, #161 ) ;
#164 = DATE_AND_TIME ( #150, #93 ) ;
#165 = EDGE_LOOP ( 'NONE', ( #11 ) ) ;
#166 = PERSON_AND_ORGANIZATION ( #152, #161 ) ;
#167 = CALENDAR_DATE ( 2021, 8, 12 ) ;
#168 = MANIFOLD_SOLID_BREP ( 'Corps-Déplacer/Copier1[1]', #74 ) ;
#169 = CIRCLE ( 'NONE', #187, 4.999999999999993783 ) ;
#170 = CARTESIAN_POINT ( 'NONE',  ( -1.710340415294095486E-30, 5.999066618916201289E-32, -4.898609642464248037E-16 ) ) ;
#171 = EDGE_CURVE ( 'NONE', #157, #157, #65, .T. ) ;
#172 = DIRECTION ( 'NONE',  ( -3.491481338843133355E-15, 1.224646799147353207E-16, -1.000000000000000000 ) ) ;
#173 = CARTESIAN_POINT ( 'NONE',  ( 0.0000000000000000000, 0.0000000000000000000, 0.0000000000000000000 ) ) ;
#174 = AXIS2_PLACEMENT_3D ( 'NONE', #149, #172, #15 ) ;
#175 = CARTESIAN_POINT ( 'NONE',  ( 2.583696190743918430E-13, -9.062386313690413585E-15, 74.00000000000000000 ) ) ;
#176 = FACE_OUTER_BOUND ( 'NONE', #43, .T. ) ;
#177 = EDGE_CURVE ( 'NONE', #17, #17, #91, .T. ) ;
#178 = APPROVAL_STATUS ( 'not_yet_approved' ) ;
#179 = PRODUCT ( '372629', '372629', '', ( #7 ) ) ;
#180 = AXIS2_PLACEMENT_3D ( 'NONE', #170, #158, #16 ) ;
#181 = SECURITY_CLASSIFICATION_LEVEL ( 'unclassified' ) ;
#182 = PERSON_AND_ORGANIZATION ( #152, #161 ) ;
#183 = ORIENTED_EDGE ( 'NONE', *, *, #191, .F. ) ;
#184 = APPROVAL ( #38, 'UNSPECIFIED' ) ;
#185 = SECURITY_CLASSIFICATION ( '', '', #181 ) ;
#186 = DATE_AND_TIME ( #199, #61 ) ;
#187 = AXIS2_PLACEMENT_3D ( 'NONE', #79, #141, #159 ) ;
#188 = DIRECTION ( 'NONE',  ( -3.491481338843133355E-15, 1.224646799147353207E-16, -1.000000000000000000 ) ) ;
#189 = EDGE_CURVE ( 'NONE', #14, #14, #139, .T. ) ;
#190 = CARTESIAN_POINT ( 'NONE',  ( 2.618611004132350143E-13, 3.999999999999990674, 75.00000000000000000 ) ) ;
#191 = EDGE_CURVE ( 'NONE', #78, #78, #111, .T. ) ;
#192 = DIRECTION ( 'NONE',  ( 4.275831445896959482E-31, 1.000000000000000000, 1.224646799147353454E-16 ) ) ;
#193 = AXIS2_PLACEMENT_3D ( 'NONE', #18, #2, #192 ) ;
#194 = EDGE_CURVE ( 'NONE', #140, #140, #169, .T. ) ;
#195 = FACE_OUTER_BOUND ( 'NONE', #165, .T. ) ;
#196 = APPROVAL_DATE_TIME ( #104, #94 ) ;
#197 = DATE_AND_TIME ( #167, #127 ) ;
#198 = APPROVAL_PERSON_ORGANIZATION ( #131, #53, #71 ) ;
#199 = CALENDAR_DATE ( 2021, 8, 12 ) ;
#200 = DIRECTION ( 'NONE',  ( 1.000000000000000000, 0.0000000000000000000, 0.0000000000000000000 ) ) ;
#201 = ORIENTED_EDGE ( 'NONE', *, *, #189, .T. ) ;
#202 = FACE_BOUND ( 'NONE', #21, .T. ) ;
#203 = AXIS2_PLACEMENT_3D ( 'NONE', #49, #92, #108 ) ;
ENDSEC;
END-ISO-10303-21;
