ISO-10303-21;
HEADER;
FILE_DESCRIPTION (( 'STEP AP203' ),
    '1' );
FILE_NAME ('372628.step',
    '2021-12-08T08:40:41',
    ( '' ),
    ( '' ),
    'SwSTEP 2.0',
    'SolidWorks 2019',
    '' );
FILE_SCHEMA (( 'CONFIG_CONTROL_DESIGN' ));
ENDSEC;

DATA;
#1 = COORDINATED_UNIVERSAL_TIME_OFFSET ( 1, 0, .AHEAD. ) ;
#2 = FACE_OUTER_BOUND ( 'NONE', #89, .T. ) ;
#3 =( LENGTH_UNIT ( ) NAMED_UNIT ( * ) SI_UNIT ( .MILLI., .METRE. ) );
#4 = DIRECTION ( 'NONE',  ( 0.0000000000000000000, 1.000000000000000000, 0.0000000000000000000 ) ) ;
#5 = PERSON_AND_ORGANIZATION ( #78, #162 ) ;
#6 = LOCAL_TIME ( 9, 40, 41.00000000000000000, #91 ) ;
#7 = DIRECTION ( 'NONE',  ( 4.275831445896958607E-31, 1.000000000000000000, 1.224646799147353207E-16 ) ) ;
#8 = DESIGN_CONTEXT ( 'detailed design', #157, 'design' ) ;
#9 = EDGE_CURVE ( 'NONE', #69, #69, #123, .T. ) ;
#10 = CIRCLE ( 'NONE', #56, 4.999999999999999112 ) ;
#11 = FACE_OUTER_BOUND ( 'NONE', #55, .T. ) ;
#12 = CARTESIAN_POINT ( 'NONE',  ( 8.379555213223520053E-14, 3.749399456654635261E-32, 24.00000000000000000 ) ) ;
#13 = APPROVAL ( #188, 'UNSPECIFIED' ) ;
#14 = PERSON_AND_ORGANIZATION ( #78, #162 ) ;
#15 = PRODUCT ( '372628', '372628', '', ( #127 ) ) ;
#16 = AXIS2_PLACEMENT_3D ( 'NONE', #52, #195, #7 ) ;
#17 = PERSON_AND_ORGANIZATION_ROLE ( 'design_owner' ) ;
#18 = ADVANCED_FACE ( 'NONE', ( #2 ), #66, .T. ) ;
#19 = COORDINATED_UNIVERSAL_TIME_OFFSET ( 1, 0, .AHEAD. ) ;
#20 = LOCAL_TIME ( 9, 40, 41.00000000000000000, #110 ) ;
#21 = CYLINDRICAL_SURFACE ( 'NONE', #193, 4.999999999999995559 ) ;
#22 = CARTESIAN_POINT ( 'NONE',  ( 8.379555213223520053E-14, 4.999999999999990230, 24.00000000000000000 ) ) ;
#23 = CALENDAR_DATE ( 2021, 8, 12 ) ;
#24 = CC_DESIGN_APPROVAL ( #13, ( #180 ) ) ;
#25 = ORIENTED_EDGE ( 'NONE', *, *, #94, .F. ) ;
#26 = DIRECTION ( 'NONE',  ( 0.0000000000000000000, 1.000000000000000000, 0.0000000000000000000 ) ) ;
#27 = LOCAL_TIME ( 9, 40, 41.00000000000000000, #62 ) ;
#28 = EDGE_LOOP ( 'NONE', ( #132 ) ) ;
#29 = FACE_OUTER_BOUND ( 'NONE', #28, .T. ) ;
#30 = SECURITY_CLASSIFICATION_LEVEL ( 'unclassified' ) ;
#31 = CLOSED_SHELL ( 'NONE', ( #174, #101, #18 ) ) ;
#32 = CARTESIAN_POINT ( 'NONE',  ( -8.551702076470477431E-31, 2.999533309458100644E-32, -2.449304821232124019E-16 ) ) ;
#33 = DIRECTION ( 'NONE',  ( 0.0000000000000000000, 1.000000000000000000, 0.0000000000000000000 ) ) ;
#34 = PERSON_AND_ORGANIZATION ( #78, #162 ) ;
#35 = DIRECTION ( 'NONE',  ( 0.0000000000000000000, 1.000000000000000000, 0.0000000000000000000 ) ) ;
#36 = DIRECTION ( 'NONE',  ( 1.000000000000000000, 0.0000000000000000000, 0.0000000000000000000 ) ) ;
#37 =( NAMED_UNIT ( * ) SI_UNIT ( $, .STERADIAN. ) SOLID_ANGLE_UNIT ( ) );
#38 = MANIFOLD_SOLID_BREP ( 'Corps-Déplacer/Copier1[1]', #46 ) ;
#39 = ORIENTED_EDGE ( 'NONE', *, *, #9, .T. ) ;
#40 = DIRECTION ( 'NONE',  ( -3.491481338843133355E-15, 1.224646799147353207E-16, -1.000000000000000000 ) ) ;
#41 = EDGE_LOOP ( 'NONE', ( #170 ) ) ;
#42 = ORIENTED_EDGE ( 'NONE', *, *, #9, .F. ) ;
#43 = AXIS2_PLACEMENT_3D ( 'NONE', #125, #124, #36 ) ;
#44 = VERTEX_POINT ( 'NONE', #77 ) ;
#45 = DATE_AND_TIME ( #177, #27 ) ;
#46 = CLOSED_SHELL ( 'NONE', ( #198, #57, #116, #139 ) ) ;
#47 = CARTESIAN_POINT ( 'NONE',  ( 8.379555213223520053E-14, 4.999999999999990230, 24.00000000000000000 ) ) ;
#48 =( NAMED_UNIT ( * ) PLANE_ANGLE_UNIT ( ) SI_UNIT ( $, .RADIAN. ) );
#49 = CC_DESIGN_PERSON_AND_ORGANIZATION_ASSIGNMENT ( #14, #17, ( #15 ) ) ;
#50 = AXIS2_PLACEMENT_3D ( 'NONE', #12, #175, #58 ) ;
#51 = DIRECTION ( 'NONE',  ( -4.275831445896958607E-31, -1.000000000000000000, -1.224646799147353207E-16 ) ) ;
#52 = CARTESIAN_POINT ( 'NONE',  ( 2.618611004132350143E-13, 2.999519565323700984E-32, 75.00000000000000000 ) ) ;
#53 = UNCERTAINTY_MEASURE_WITH_UNIT (LENGTH_MEASURE( 1.000000000000000082E-05 ), #3, 'distance_accuracy_value', 'NONE');
#54 = APPROVAL_STATUS ( 'not_yet_approved' ) ;
#55 = EDGE_LOOP ( 'NONE', ( #172 ) ) ;
#56 = AXIS2_PLACEMENT_3D ( 'NONE', #82, #85, #4 ) ;
#57 = ADVANCED_FACE ( 'NONE', ( #137, #95 ), #21, .T. ) ;
#58 = DIRECTION ( 'NONE',  ( -4.275831445896958607E-31, -1.000000000000000000, -1.224646799147353207E-16 ) ) ;
#59 = CIRCLE ( 'NONE', #107, 4.999999999999992895 ) ;
#60 = DATE_TIME_ROLE ( 'classification_date' ) ;
#61 = FACE_BOUND ( 'NONE', #70, .T. ) ;
#62 = COORDINATED_UNIVERSAL_TIME_OFFSET ( 1, 0, .AHEAD. ) ;
#63 = PRODUCT_DEFINITION_SHAPE ( 'NONE', 'NONE',  #180 ) ;
#64 = CONICAL_SURFACE ( 'NONE', #118, 4.000000000000000000, 0.7853981633974473908 ) ;
#65 = PLANE ( 'NONE',  #190 ) ;
#66 = PLANE ( 'NONE',  #168 ) ;
#67 = PERSON_AND_ORGANIZATION_ROLE ( 'design_supplier' ) ;
#68 = LOCAL_TIME ( 9, 40, 41.00000000000000000, #19 ) ;
#69 = VERTEX_POINT ( 'NONE', #114 ) ;
#70 = EDGE_LOOP ( 'NONE', ( #39 ) ) ;
#71 = DIRECTION ( 'NONE',  ( -3.491481338843133355E-15, 1.224646799147353207E-16, -1.000000000000000000 ) ) ;
#72 = ORIENTED_EDGE ( 'NONE', *, *, #148, .F. ) ;
#73 = CYLINDRICAL_SURFACE ( 'NONE', #179, 4.999999999999992006 ) ;
#74 = CC_DESIGN_PERSON_AND_ORGANIZATION_ASSIGNMENT ( #34, #83, ( #180 ) ) ;
#75 = CIRCLE ( 'NONE', #84, 4.999999999999992895 ) ;
#76 = LOCAL_TIME ( 9, 40, 41.00000000000000000, #1 ) ;
#77 = CARTESIAN_POINT ( 'NONE',  ( 2.583696190743918430E-13, 4.999999999999990230, 74.00000000000000000 ) ) ;
#78 = PERSON ( 'UNSPECIFIED', 'UNSPECIFIED', 'UNSPECIFIED', ('UNSPECIFIED'), ('UNSPECIFIED'), ('UNSPECIFIED') ) ;
#79 = APPROVAL_STATUS ( 'not_yet_approved' ) ;
#80 = CARTESIAN_POINT ( 'NONE',  ( 0.0000000000000000000, 0.0000000000000000000, 0.0000000000000000000 ) ) ;
#81 = APPLICATION_PROTOCOL_DEFINITION ( 'international standard', 'config_control_design', 1994, #164 ) ;
#82 = CARTESIAN_POINT ( 'NONE',  ( 2.583696190743918430E-13, -9.062386313690413585E-15, 74.00000000000000000 ) ) ;
#83 = PERSON_AND_ORGANIZATION_ROLE ( 'creator' ) ;
#84 = AXIS2_PLACEMENT_3D ( 'NONE', #121, #158, #154 ) ;
#85 = DIRECTION ( 'NONE',  ( -3.491481338843133355E-15, 1.224646799147353207E-16, -1.000000000000000000 ) ) ;
#86 = PERSON_AND_ORGANIZATION_ROLE ( 'creator' ) ;
#87 = APPROVAL_PERSON_ORGANIZATION ( #165, #13, #146 ) ;
#88 = DIRECTION ( 'NONE',  ( 3.491481338843133355E-15, -1.224646799147353207E-16, 1.000000000000000000 ) ) ;
#89 = EDGE_LOOP ( 'NONE', ( #72 ) ) ;
#90 = AXIS2_PLACEMENT_3D ( 'NONE', #153, #71, #33 ) ;
#91 = COORDINATED_UNIVERSAL_TIME_OFFSET ( 1, 0, .AHEAD. ) ;
#92 = FACE_OUTER_BOUND ( 'NONE', #155, .T. ) ;
#93 = APPLICATION_PROTOCOL_DEFINITION ( 'international standard', 'config_control_design', 1994, #157 ) ;
#94 = EDGE_CURVE ( 'NONE', #173, #173, #75, .T. ) ;
#95 = FACE_OUTER_BOUND ( 'NONE', #41, .T. ) ;
#96 = PERSON_AND_ORGANIZATION ( #78, #162 ) ;
#97 = CARTESIAN_POINT ( 'NONE',  ( 8.379555213223520053E-14, 3.749399456654635261E-32, 24.00000000000000000 ) ) ;
#98 = MANIFOLD_SOLID_BREP ( 'Corps-Déplacer/Copier1[2]', #31 ) ;
#99 = EDGE_LOOP ( 'NONE', ( #25 ) ) ;
#100 = APPROVAL_DATE_TIME ( #196, #131 ) ;
#101 = ADVANCED_FACE ( 'NONE', ( #29, #11 ), #73, .T. ) ;
#102 = DIRECTION ( 'NONE',  ( 4.275831445896959482E-31, 1.000000000000000000, 1.224646799147353454E-16 ) ) ;
#103 = APPROVAL ( #79, 'UNSPECIFIED' ) ;
#104 = PRODUCT_RELATED_PRODUCT_CATEGORY ( 'detail', '', ( #15 ) ) ;
#105 = DIRECTION ( 'NONE',  ( -3.491481338843133355E-15, 1.224646799147353207E-16, -1.000000000000000000 ) ) ;
#106 = APPROVAL_DATE_TIME ( #141, #13 ) ;
#107 = AXIS2_PLACEMENT_3D ( 'NONE', #117, #40, #26 ) ;
#108 = DIRECTION ( 'NONE',  ( -3.491481338843133355E-15, 1.224646799147353207E-16, -1.000000000000000000 ) ) ;
#109 = VERTEX_POINT ( 'NONE', #147 ) ;
#110 = COORDINATED_UNIVERSAL_TIME_OFFSET ( 1, 0, .AHEAD. ) ;
#111 = CIRCLE ( 'NONE', #130, 4.999999999999990230 ) ;
#112 = PERSON_AND_ORGANIZATION ( #78, #162 ) ;
#113 = DIRECTION ( 'NONE',  ( 3.491481338843133355E-15, -1.224646799147353207E-16, 1.000000000000000000 ) ) ;
#114 = CARTESIAN_POINT ( 'NONE',  ( 2.618611004132350143E-13, 3.999999999999990674, 75.00000000000000000 ) ) ;
#115 = EDGE_LOOP ( 'NONE', ( #159 ) ) ;
#116 = ADVANCED_FACE ( 'NONE', ( #203, #61 ), #64, .T. ) ;
#117 = CARTESIAN_POINT ( 'NONE',  ( 8.379555213223520053E-14, -2.939152317953647894E-15, 24.00000000000000000 ) ) ;
#118 = AXIS2_PLACEMENT_3D ( 'NONE', #189, #108, #35 ) ;
#119 = ORIENTED_EDGE ( 'NONE', *, *, #163, .T. ) ;
#120 = CC_DESIGN_APPROVAL ( #131, ( #181 ) ) ;
#121 = CARTESIAN_POINT ( 'NONE',  ( 8.379555213223520053E-14, -2.939152317953647894E-15, 24.00000000000000000 ) ) ;
#122 = FACE_OUTER_BOUND ( 'NONE', #115, .T. ) ;
#123 = CIRCLE ( 'NONE', #90, 4.000000000000000000 ) ;
#124 = DIRECTION ( 'NONE',  ( 0.0000000000000000000, 0.0000000000000000000, 1.000000000000000000 ) ) ;
#125 = CARTESIAN_POINT ( 'NONE',  ( 0.0000000000000000000, 0.0000000000000000000, 0.0000000000000000000 ) ) ;
#126 = CC_DESIGN_DATE_AND_TIME_ASSIGNMENT ( #200, #60, ( #181 ) ) ;
#127 = MECHANICAL_CONTEXT ( 'NONE', #164, 'mechanical' ) ;
#128 = PERSON_AND_ORGANIZATION ( #78, #162 ) ;
#129 = PERSON_AND_ORGANIZATION ( #78, #162 ) ;
#130 = AXIS2_PLACEMENT_3D ( 'NONE', #133, #105, #187 ) ;
#131 = APPROVAL ( #54, 'UNSPECIFIED' ) ;
#132 = ORIENTED_EDGE ( 'NONE', *, *, #163, .F. ) ;
#133 = CARTESIAN_POINT ( 'NONE',  ( -1.710340415294095486E-30, 5.999066618916201289E-32, -4.898609642464248037E-16 ) ) ;
#134 = EDGE_LOOP ( 'NONE', ( #138 ) ) ;
#135 = EDGE_LOOP ( 'NONE', ( #119 ) ) ;
#136 = CALENDAR_DATE ( 2021, 8, 12 ) ;
#137 = FACE_OUTER_BOUND ( 'NONE', #99, .T. ) ;
#138 = ORIENTED_EDGE ( 'NONE', *, *, #184, .F. ) ;
#139 = ADVANCED_FACE ( 'NONE', ( #92 ), #152, .F. ) ;
#140 = PRODUCT_DEFINITION_FORMATION_WITH_SPECIFIED_SOURCE ( 'ANY', '', #15, .NOT_KNOWN. ) ;
#141 = DATE_AND_TIME ( #145, #68 ) ;
#142 = APPROVAL_ROLE ( '' ) ;
#143 = CC_DESIGN_DATE_AND_TIME_ASSIGNMENT ( #45, #186, ( #180 ) ) ;
#144 = DIRECTION ( 'NONE',  ( 4.275831445896958607E-31, 1.000000000000000000, 1.224646799147353207E-16 ) ) ;
#145 = CALENDAR_DATE ( 2021, 8, 12 ) ;
#146 = APPROVAL_ROLE ( '' ) ;
#147 = CARTESIAN_POINT ( 'NONE',  ( 4.275753076543797008E-31, 4.999999999999990230, 1.224624353272506412E-16 ) ) ;
#148 = EDGE_CURVE ( 'NONE', #191, #191, #59, .T. ) ;
#149 = APPROVAL_ROLE ( '' ) ;
#150 = CC_DESIGN_SECURITY_CLASSIFICATION ( #181, ( #140 ) ) ;
#151 = DIRECTION ( 'NONE',  ( -4.275831445896958607E-31, -1.000000000000000000, -1.224646799147353207E-16 ) ) ;
#152 = PLANE ( 'NONE',  #16 ) ;
#153 = CARTESIAN_POINT ( 'NONE',  ( 2.618611004132350143E-13, -9.184850993605148733E-15, 75.00000000000000000 ) ) ;
#154 = DIRECTION ( 'NONE',  ( 0.0000000000000000000, 1.000000000000000000, 0.0000000000000000000 ) ) ;
#155 = EDGE_LOOP ( 'NONE', ( #42 ) ) ;
#156 =( GEOMETRIC_REPRESENTATION_CONTEXT ( 3 ) GLOBAL_UNCERTAINTY_ASSIGNED_CONTEXT ( ( #53 ) ) GLOBAL_UNIT_ASSIGNED_CONTEXT ( ( #3, #48, #37 ) ) REPRESENTATION_CONTEXT ( 'NONE', 'WORKASPACE' ) );
#157 = APPLICATION_CONTEXT ( 'configuration controlled 3d designs of mechanical parts and assemblies' ) ;
#158 = DIRECTION ( 'NONE',  ( -3.491481338843133355E-15, 1.224646799147353207E-16, -1.000000000000000000 ) ) ;
#159 = ORIENTED_EDGE ( 'NONE', *, *, #94, .T. ) ;
#160 = PLANE ( 'NONE',  #50 ) ;
#161 = CALENDAR_DATE ( 2021, 8, 12 ) ;
#162 = ORGANIZATION ( 'UNSPECIFIED', 'UNSPECIFIED', '' ) ;
#163 = EDGE_CURVE ( 'NONE', #109, #109, #111, .T. ) ;
#164 = APPLICATION_CONTEXT ( 'configuration controlled 3d designs of mechanical parts and assemblies' ) ;
#165 = PERSON_AND_ORGANIZATION ( #78, #162 ) ;
#166 = APPROVAL_PERSON_ORGANIZATION ( #112, #131, #149 ) ;
#167 = APPROVAL_DATE_TIME ( #202, #103 ) ;
#168 = AXIS2_PLACEMENT_3D ( 'NONE', #97, #88, #51 ) ;
#169 = CC_DESIGN_PERSON_AND_ORGANIZATION_ASSIGNMENT ( #129, #192, ( #181 ) ) ;
#170 = ORIENTED_EDGE ( 'NONE', *, *, #184, .T. ) ;
#171 = APPROVAL_PERSON_ORGANIZATION ( #96, #103, #142 ) ;
#172 = ORIENTED_EDGE ( 'NONE', *, *, #148, .T. ) ;
#173 = VERTEX_POINT ( 'NONE', #22 ) ;
#174 = ADVANCED_FACE ( 'NONE', ( #176 ), #65, .F. ) ;
#175 = DIRECTION ( 'NONE',  ( 3.491481338843133355E-15, -1.224646799147353207E-16, 1.000000000000000000 ) ) ;
#176 = FACE_OUTER_BOUND ( 'NONE', #135, .T. ) ;
#177 = CALENDAR_DATE ( 2021, 8, 12 ) ;
#178 = DIRECTION ( 'NONE',  ( -3.491481338843133355E-15, 1.224646799147353207E-16, -1.000000000000000000 ) ) ;
#179 = AXIS2_PLACEMENT_3D ( 'NONE', #80, #178, #144 ) ;
#180 = PRODUCT_DEFINITION ( 'UNKNOWN', '', #140, #8 ) ;
#181 = SECURITY_CLASSIFICATION ( '', '', #30 ) ;
#182 = CC_DESIGN_APPROVAL ( #103, ( #140 ) ) ;
#183 = ADVANCED_BREP_SHAPE_REPRESENTATION ( '372628', ( #38, #98, #43 ), #156 ) ;
#184 = EDGE_CURVE ( 'NONE', #44, #44, #10, .T. ) ;
#185 = CARTESIAN_POINT ( 'NONE',  ( 0.0000000000000000000, 0.0000000000000000000, 0.0000000000000000000 ) ) ;
#186 = DATE_TIME_ROLE ( 'creation_date' ) ;
#187 = DIRECTION ( 'NONE',  ( 4.275831445896958607E-31, 1.000000000000000000, 1.224646799147353207E-16 ) ) ;
#188 = APPROVAL_STATUS ( 'not_yet_approved' ) ;
#189 = CARTESIAN_POINT ( 'NONE',  ( 2.618611004132350143E-13, -9.184850993605148733E-15, 75.00000000000000000 ) ) ;
#190 = AXIS2_PLACEMENT_3D ( 'NONE', #32, #113, #151 ) ;
#191 = VERTEX_POINT ( 'NONE', #47 ) ;
#192 = PERSON_AND_ORGANIZATION_ROLE ( 'classification_officer' ) ;
#193 = AXIS2_PLACEMENT_3D ( 'NONE', #185, #197, #102 ) ;
#194 = SHAPE_DEFINITION_REPRESENTATION ( #63, #183 ) ;
#195 = DIRECTION ( 'NONE',  ( -3.491481338843133355E-15, 1.224646799147353207E-16, -1.000000000000000000 ) ) ;
#196 = DATE_AND_TIME ( #136, #20 ) ;
#197 = DIRECTION ( 'NONE',  ( -3.491481338843133355E-15, 1.224646799147353207E-16, -1.000000000000000000 ) ) ;
#198 = ADVANCED_FACE ( 'NONE', ( #122 ), #160, .F. ) ;
#199 = CC_DESIGN_PERSON_AND_ORGANIZATION_ASSIGNMENT ( #5, #67, ( #140 ) ) ;
#200 = DATE_AND_TIME ( #161, #6 ) ;
#201 = CC_DESIGN_PERSON_AND_ORGANIZATION_ASSIGNMENT ( #128, #86, ( #140 ) ) ;
#202 = DATE_AND_TIME ( #23, #76 ) ;
#203 = FACE_OUTER_BOUND ( 'NONE', #134, .T. ) ;
ENDSEC;
END-ISO-10303-21;
