ISO-10303-21;
HEADER;
FILE_DESCRIPTION (( 'STEP AP203' ),
    '1' );
FILE_NAME ('372627.step',
    '2021-12-08T08:40:40',
    ( '' ),
    ( '' ),
    'SwSTEP 2.0',
    'SolidWorks 2019',
    '' );
FILE_SCHEMA (( 'CONFIG_CONTROL_DESIGN' ));
ENDSEC;

DATA;
#1 = FACE_OUTER_BOUND ( 'NONE', #194, .T. ) ;
#2 = DIRECTION ( 'NONE',  ( -4.275831445896958607E-31, -1.000000000000000000, -1.224646799147353207E-16 ) ) ;
#3 = CIRCLE ( 'NONE', #35, 3.200000000000003286 ) ;
#4 = DIRECTION ( 'NONE',  ( 3.491481338843133355E-15, -1.224646799147353207E-16, 1.000000000000000000 ) ) ;
#5 =( NAMED_UNIT ( * ) PLANE_ANGLE_UNIT ( ) SI_UNIT ( $, .RADIAN. ) );
#6 = EDGE_CURVE ( 'NONE', #117, #117, #191, .T. ) ;
#7 = COORDINATED_UNIVERSAL_TIME_OFFSET ( 1, 0, .AHEAD. ) ;
#8 = ORIENTED_EDGE ( 'NONE', *, *, #99, .T. ) ;
#9 = EDGE_LOOP ( 'NONE', ( #94 ) ) ;
#10 = CALENDAR_DATE ( 2021, 8, 12 ) ;
#11 = DIRECTION ( 'NONE',  ( 4.275831445896958607E-31, 1.000000000000000000, 1.224646799147353207E-16 ) ) ;
#12 = APPROVAL_PERSON_ORGANIZATION ( #173, #185, #154 ) ;
#13 = APPLICATION_CONTEXT ( 'configuration controlled 3d designs of mechanical parts and assemblies' ) ;
#14 = APPROVAL ( #76, 'UNSPECIFIED' ) ;
#15 = AXIS2_PLACEMENT_3D ( 'NONE', #201, #63, #176 ) ;
#16 = CC_DESIGN_DATE_AND_TIME_ASSIGNMENT ( #187, #27, ( #184 ) ) ;
#17 = LOCAL_TIME ( 9, 40, 40.00000000000000000, #7 ) ;
#18 = DIRECTION ( 'NONE',  ( 0.0000000000000000000, 1.000000000000000000, 0.0000000000000000000 ) ) ;
#19 = FACE_OUTER_BOUND ( 'NONE', #175, .T. ) ;
#20 = VERTEX_POINT ( 'NONE', #25 ) ;
#21 = AXIS2_PLACEMENT_3D ( 'NONE', #156, #124, #11 ) ;
#22 = DIRECTION ( 'NONE',  ( 0.0000000000000000000, 0.0000000000000000000, 1.000000000000000000 ) ) ;
#23 = CARTESIAN_POINT ( 'NONE',  ( 2.793185071074506684E-13, -9.797174393178826052E-15, 80.00000000000000000 ) ) ;
#24 = MANIFOLD_SOLID_BREP ( 'Corps-Déplacer/Copier1[2]', #65 ) ;
#25 = CARTESIAN_POINT ( 'NONE',  ( 1.326762908760390423E-13, 3.999999999999991562, 38.00000000000000000 ) ) ;
#26 = PRODUCT_DEFINITION_FORMATION_WITH_SPECIFIED_SOURCE ( 'ANY', '', #103, .NOT_KNOWN. ) ;
#27 = DATE_TIME_ROLE ( 'classification_date' ) ;
#28 = DATE_AND_TIME ( #108, #17 ) ;
#29 = PERSON_AND_ORGANIZATION_ROLE ( 'creator' ) ;
#30 = ORIENTED_EDGE ( 'NONE', *, *, #116, .F. ) ;
#31 = SHAPE_DEFINITION_REPRESENTATION ( #53, #40 ) ;
#32 = EDGE_LOOP ( 'NONE', ( #77 ) ) ;
#33 = EDGE_LOOP ( 'NONE', ( #122 ) ) ;
#34 = FACE_OUTER_BOUND ( 'NONE', #152, .T. ) ;
#35 = AXIS2_PLACEMENT_3D ( 'NONE', #174, #51, #37 ) ;
#36 = DIRECTION ( 'NONE',  ( -4.275831445896958607E-31, -1.000000000000000000, -1.224646799147353207E-16 ) ) ;
#37 = DIRECTION ( 'NONE',  ( 0.0000000000000000000, 1.000000000000000000, 0.0000000000000000000 ) ) ;
#38 = AXIS2_PLACEMENT_3D ( 'NONE', #50, #144, #41 ) ;
#39 = VERTEX_POINT ( 'NONE', #163 ) ;
#40 = ADVANCED_BREP_SHAPE_REPRESENTATION ( '372627', ( #95, #24, #129 ), #78 ) ;
#41 = DIRECTION ( 'NONE',  ( 4.275831445896958607E-31, 1.000000000000000000, 1.224646799147353207E-16 ) ) ;
#42 = AXIS2_PLACEMENT_3D ( 'NONE', #130, #67, #104 ) ;
#43 = PERSON_AND_ORGANIZATION ( #160, #190 ) ;
#44 = CALENDAR_DATE ( 2021, 8, 12 ) ;
#45 = PERSON_AND_ORGANIZATION_ROLE ( 'design_supplier' ) ;
#46 = AXIS2_PLACEMENT_3D ( 'NONE', #115, #170, #18 ) ;
#47 = DESIGN_CONTEXT ( 'detailed design', #199, 'design' ) ;
#48 = ADVANCED_FACE ( 'NONE', ( #34 ), #111, .T. ) ;
#49 = LOCAL_TIME ( 9, 40, 40.00000000000000000, #200 ) ;
#50 = CARTESIAN_POINT ( 'NONE',  ( 2.793185071074506684E-13, 2.399615652258959583E-32, 80.00000000000000000 ) ) ;
#51 = DIRECTION ( 'NONE',  ( -3.491481338843133355E-15, 1.224646799147353207E-16, -1.000000000000000000 ) ) ;
#52 = CYLINDRICAL_SURFACE ( 'NONE', #42, 3.999999999999999112 ) ;
#53 = PRODUCT_DEFINITION_SHAPE ( 'NONE', 'NONE',  #109 ) ;
#54 = CARTESIAN_POINT ( 'NONE',  ( -1.282766372550154493E-30, 4.499338761231704644E-32, -3.673988912039226017E-16 ) ) ;
#55 = PERSON_AND_ORGANIZATION_ROLE ( 'creator' ) ;
#56 = APPROVAL_DATE_TIME ( #72, #185 ) ;
#57 = PERSON_AND_ORGANIZATION ( #160, #190 ) ;
#58 = APPROVAL_STATUS ( 'not_yet_approved' ) ;
#59 = ADVANCED_FACE ( 'NONE', ( #1, #114 ), #146, .T. ) ;
#60 = PERSON_AND_ORGANIZATION_ROLE ( 'design_owner' ) ;
#61 = DIRECTION ( 'NONE',  ( -3.491481338843133355E-15, 1.224646799147353207E-16, -1.000000000000000000 ) ) ;
#62 = CC_DESIGN_SECURITY_CLASSIFICATION ( #184, ( #26 ) ) ;
#63 = DIRECTION ( 'NONE',  ( -3.491481338843133355E-15, 1.224646799147353207E-16, -1.000000000000000000 ) ) ;
#64 = DIRECTION ( 'NONE',  ( 0.0000000000000000000, 1.000000000000000000, 0.0000000000000000000 ) ) ;
#65 = CLOSED_SHELL ( 'NONE', ( #195, #59, #48 ) ) ;
#66 = DIRECTION ( 'NONE',  ( 0.0000000000000000000, 1.000000000000000000, 0.0000000000000000000 ) ) ;
#67 = DIRECTION ( 'NONE',  ( -3.491481338843133355E-15, 1.224646799147353207E-16, -1.000000000000000000 ) ) ;
#68 = CARTESIAN_POINT ( 'NONE',  ( 1.326762908760390423E-13, -4.653657836759941941E-15, 38.00000000000000000 ) ) ;
#69 = MECHANICAL_CONTEXT ( 'NONE', #13, 'mechanical' ) ;
#70 = AXIS2_PLACEMENT_3D ( 'NONE', #119, #4, #36 ) ;
#71 =( NAMED_UNIT ( * ) SI_UNIT ( $, .STERADIAN. ) SOLID_ANGLE_UNIT ( ) );
#72 = DATE_AND_TIME ( #10, #128 ) ;
#73 = EDGE_LOOP ( 'NONE', ( #8 ) ) ;
#74 = APPROVAL ( #58, 'UNSPECIFIED' ) ;
#75 = ORIENTED_EDGE ( 'NONE', *, *, #6, .F. ) ;
#76 = APPROVAL_STATUS ( 'not_yet_approved' ) ;
#77 = ORIENTED_EDGE ( 'NONE', *, *, #159, .T. ) ;
#78 =( GEOMETRIC_REPRESENTATION_CONTEXT ( 3 ) GLOBAL_UNCERTAINTY_ASSIGNED_CONTEXT ( ( #157 ) ) GLOBAL_UNIT_ASSIGNED_CONTEXT ( ( #150, #5, #71 ) ) REPRESENTATION_CONTEXT ( 'NONE', 'WORKASPACE' ) );
#79 = APPROVAL_ROLE ( '' ) ;
#80 = CLOSED_SHELL ( 'NONE', ( #142, #203, #178, #136 ) ) ;
#81 = DIRECTION ( 'NONE',  ( -4.275831445896958607E-31, -1.000000000000000000, -1.224646799147353207E-16 ) ) ;
#82 = CIRCLE ( 'NONE', #46, 3.999999999999995559 ) ;
#83 = DIRECTION ( 'NONE',  ( 3.491481338843133355E-15, -1.224646799147353207E-16, 1.000000000000000000 ) ) ;
#84 = DIRECTION ( 'NONE',  ( 1.000000000000000000, 0.0000000000000000000, 0.0000000000000000000 ) ) ;
#85 = CARTESIAN_POINT ( 'NONE',  ( 2.765253220363762122E-13, 3.999999999999993339, 79.20000000000001705 ) ) ;
#86 = CIRCLE ( 'NONE', #169, 3.999999999999995559 ) ;
#87 = APPLICATION_PROTOCOL_DEFINITION ( 'international standard', 'config_control_design', 1994, #13 ) ;
#88 = PLANE ( 'NONE',  #70 ) ;
#89 = CARTESIAN_POINT ( 'NONE',  ( 4.275662058086250086E-31, 3.999999999999990674, 1.224598284550174978E-16 ) ) ;
#90 = CC_DESIGN_APPROVAL ( #74, ( #109 ) ) ;
#91 = CALENDAR_DATE ( 2021, 8, 12 ) ;
#92 = ORIENTED_EDGE ( 'NONE', *, *, #105, .T. ) ;
#93 = COORDINATED_UNIVERSAL_TIME_OFFSET ( 1, 0, .AHEAD. ) ;
#94 = ORIENTED_EDGE ( 'NONE', *, *, #116, .T. ) ;
#95 = MANIFOLD_SOLID_BREP ( 'Corps-Déplacer/Copier1[1]', #80 ) ;
#96 = PERSON_AND_ORGANIZATION ( #160, #190 ) ;
#97 = ORIENTED_EDGE ( 'NONE', *, *, #105, .F. ) ;
#98 = LOCAL_TIME ( 9, 40, 40.00000000000000000, #196 ) ;
#99 = EDGE_CURVE ( 'NONE', #39, #39, #3, .T. ) ;
#100 = CIRCLE ( 'NONE', #161, 3.999999999999990674 ) ;
#101 = FACE_OUTER_BOUND ( 'NONE', #188, .T. ) ;
#102 = LOCAL_TIME ( 9, 40, 40.00000000000000000, #138 ) ;
#103 = PRODUCT ( '372627', '372627', '', ( #69 ) ) ;
#104 = DIRECTION ( 'NONE',  ( 4.275831445896958607E-31, 1.000000000000000000, 1.224646799147353207E-16 ) ) ;
#105 = EDGE_CURVE ( 'NONE', #20, #20, #86, .T. ) ;
#106 = DATE_AND_TIME ( #91, #102 ) ;
#107 = EDGE_LOOP ( 'NONE', ( #30 ) ) ;
#108 = CALENDAR_DATE ( 2021, 8, 12 ) ;
#109 = PRODUCT_DEFINITION ( 'UNKNOWN', '', #26, #47 ) ;
#110 = DATE_TIME_ROLE ( 'creation_date' ) ;
#111 = PLANE ( 'NONE',  #131 ) ;
#112 = APPROVAL_PERSON_ORGANIZATION ( #121, #74, #79 ) ;
#113 = DIRECTION ( 'NONE',  ( 4.275831445896958607E-31, 1.000000000000000000, 1.224646799147353207E-16 ) ) ;
#114 = FACE_OUTER_BOUND ( 'NONE', #153, .T. ) ;
#115 = CARTESIAN_POINT ( 'NONE',  ( 1.326762908760390423E-13, -4.653657836759941941E-15, 38.00000000000000000 ) ) ;
#116 = EDGE_CURVE ( 'NONE', #166, #166, #82, .T. ) ;
#117 = VERTEX_POINT ( 'NONE', #85 ) ;
#118 = PERSON_AND_ORGANIZATION ( #160, #190 ) ;
#119 = CARTESIAN_POINT ( 'NONE',  ( -6.413831862750772464E-31, 2.249669380615852322E-32, -1.836994456019613009E-16 ) ) ;
#120 = SECURITY_CLASSIFICATION_LEVEL ( 'unclassified' ) ;
#121 = PERSON_AND_ORGANIZATION ( #160, #190 ) ;
#122 = ORIENTED_EDGE ( 'NONE', *, *, #99, .F. ) ;
#123 = DATE_AND_TIME ( #183, #49 ) ;
#124 = DIRECTION ( 'NONE',  ( -3.491481338843133355E-15, 1.224646799147353207E-16, -1.000000000000000000 ) ) ;
#125 = APPROVAL_ROLE ( '' ) ;
#126 = CONICAL_SURFACE ( 'NONE', #202, 3.200000000000003286, 0.7853981633974597143 ) ;
#127 = CC_DESIGN_PERSON_AND_ORGANIZATION_ASSIGNMENT ( #57, #29, ( #26 ) ) ;
#128 = LOCAL_TIME ( 9, 40, 40.00000000000000000, #93 ) ;
#129 = AXIS2_PLACEMENT_3D ( 'NONE', #164, #22, #84 ) ;
#130 = CARTESIAN_POINT ( 'NONE',  ( 0.0000000000000000000, 0.0000000000000000000, 0.0000000000000000000 ) ) ;
#131 = AXIS2_PLACEMENT_3D ( 'NONE', #189, #83, #81 ) ;
#132 = CC_DESIGN_PERSON_AND_ORGANIZATION_ASSIGNMENT ( #96, #182, ( #184 ) ) ;
#133 = PLANE ( 'NONE',  #137 ) ;
#134 = VERTEX_POINT ( 'NONE', #89 ) ;
#135 = ORIENTED_EDGE ( 'NONE', *, *, #6, .T. ) ;
#136 = ADVANCED_FACE ( 'NONE', ( #162 ), #167, .F. ) ;
#137 = AXIS2_PLACEMENT_3D ( 'NONE', #181, #193, #2 ) ;
#138 = COORDINATED_UNIVERSAL_TIME_OFFSET ( 1, 0, .AHEAD. ) ;
#139 = APPROVAL_DATE_TIME ( #28, #74 ) ;
#140 = APPROVAL_PERSON_ORGANIZATION ( #197, #14, #125 ) ;
#141 = PRODUCT_RELATED_PRODUCT_CATEGORY ( 'detail', '', ( #103 ) ) ;
#142 = ADVANCED_FACE ( 'NONE', ( #179 ), #133, .F. ) ;
#143 = CC_DESIGN_PERSON_AND_ORGANIZATION_ASSIGNMENT ( #43, #45, ( #26 ) ) ;
#144 = DIRECTION ( 'NONE',  ( -3.491481338843133355E-15, 1.224646799147353207E-16, -1.000000000000000000 ) ) ;
#145 = FACE_OUTER_BOUND ( 'NONE', #107, .T. ) ;
#146 = CYLINDRICAL_SURFACE ( 'NONE', #21, 3.999999999999993339 ) ;
#147 = DIRECTION ( 'NONE',  ( -3.491481338843133355E-15, 1.224646799147353207E-16, -1.000000000000000000 ) ) ;
#148 = CARTESIAN_POINT ( 'NONE',  ( 1.326762908760390423E-13, 3.999999999999991562, 38.00000000000000000 ) ) ;
#149 = ORIENTED_EDGE ( 'NONE', *, *, #159, .F. ) ;
#150 =( LENGTH_UNIT ( ) NAMED_UNIT ( * ) SI_UNIT ( .MILLI., .METRE. ) );
#151 = APPLICATION_PROTOCOL_DEFINITION ( 'international standard', 'config_control_design', 1994, #199 ) ;
#152 = EDGE_LOOP ( 'NONE', ( #97 ) ) ;
#153 = EDGE_LOOP ( 'NONE', ( #92 ) ) ;
#154 = APPROVAL_ROLE ( '' ) ;
#155 = CC_DESIGN_APPROVAL ( #185, ( #184 ) ) ;
#156 = CARTESIAN_POINT ( 'NONE',  ( 0.0000000000000000000, 0.0000000000000000000, 0.0000000000000000000 ) ) ;
#157 = UNCERTAINTY_MEASURE_WITH_UNIT (LENGTH_MEASURE( 1.000000000000000082E-05 ), #150, 'distance_accuracy_value', 'NONE');
#158 = CC_DESIGN_APPROVAL ( #14, ( #26 ) ) ;
#159 = EDGE_CURVE ( 'NONE', #134, #134, #100, .T. ) ;
#160 = PERSON ( 'UNSPECIFIED', 'UNSPECIFIED', 'UNSPECIFIED', ('UNSPECIFIED'), ('UNSPECIFIED'), ('UNSPECIFIED') ) ;
#161 = AXIS2_PLACEMENT_3D ( 'NONE', #54, #147, #113 ) ;
#162 = FACE_OUTER_BOUND ( 'NONE', #33, .T. ) ;
#163 = CARTESIAN_POINT ( 'NONE',  ( 2.793185071074506684E-13, 3.199999999999993072, 80.00000000000000000 ) ) ;
#164 = CARTESIAN_POINT ( 'NONE',  ( 0.0000000000000000000, 0.0000000000000000000, 0.0000000000000000000 ) ) ;
#165 = CC_DESIGN_DATE_AND_TIME_ASSIGNMENT ( #123, #110, ( #109 ) ) ;
#166 = VERTEX_POINT ( 'NONE', #148 ) ;
#167 = PLANE ( 'NONE',  #38 ) ;
#168 = PERSON_AND_ORGANIZATION ( #160, #190 ) ;
#169 = AXIS2_PLACEMENT_3D ( 'NONE', #68, #61, #66 ) ;
#170 = DIRECTION ( 'NONE',  ( -3.491481338843133355E-15, 1.224646799147353207E-16, -1.000000000000000000 ) ) ;
#171 = CC_DESIGN_PERSON_AND_ORGANIZATION_ASSIGNMENT ( #118, #60, ( #103 ) ) ;
#172 = APPROVAL_STATUS ( 'not_yet_approved' ) ;
#173 = PERSON_AND_ORGANIZATION ( #160, #190 ) ;
#174 = CARTESIAN_POINT ( 'NONE',  ( 2.793185071074506684E-13, -9.797174393178826052E-15, 80.00000000000000000 ) ) ;
#175 = EDGE_LOOP ( 'NONE', ( #135 ) ) ;
#176 = DIRECTION ( 'NONE',  ( 0.0000000000000000000, 1.000000000000000000, 0.0000000000000000000 ) ) ;
#177 = FACE_BOUND ( 'NONE', #73, .T. ) ;
#178 = ADVANCED_FACE ( 'NONE', ( #101, #177 ), #126, .T. ) ;
#179 = FACE_OUTER_BOUND ( 'NONE', #9, .T. ) ;
#180 = FACE_OUTER_BOUND ( 'NONE', #32, .T. ) ;
#181 = CARTESIAN_POINT ( 'NONE',  ( 1.326762908760390423E-13, 2.999519565323705910E-32, 38.00000000000000000 ) ) ;
#182 = PERSON_AND_ORGANIZATION_ROLE ( 'classification_officer' ) ;
#183 = CALENDAR_DATE ( 2021, 8, 12 ) ;
#184 = SECURITY_CLASSIFICATION ( '', '', #120 ) ;
#185 = APPROVAL ( #172, 'UNSPECIFIED' ) ;
#186 = APPROVAL_DATE_TIME ( #106, #14 ) ;
#187 = DATE_AND_TIME ( #44, #98 ) ;
#188 = EDGE_LOOP ( 'NONE', ( #75 ) ) ;
#189 = CARTESIAN_POINT ( 'NONE',  ( 1.326762908760390423E-13, 2.999519565323705910E-32, 38.00000000000000000 ) ) ;
#190 = ORGANIZATION ( 'UNSPECIFIED', 'UNSPECIFIED', '' ) ;
#191 = CIRCLE ( 'NONE', #15, 4.000000000000002665 ) ;
#192 = DIRECTION ( 'NONE',  ( -3.491481338843133355E-15, 1.224646799147353207E-16, -1.000000000000000000 ) ) ;
#193 = DIRECTION ( 'NONE',  ( 3.491481338843133355E-15, -1.224646799147353207E-16, 1.000000000000000000 ) ) ;
#194 = EDGE_LOOP ( 'NONE', ( #149 ) ) ;
#195 = ADVANCED_FACE ( 'NONE', ( #180 ), #88, .F. ) ;
#196 = COORDINATED_UNIVERSAL_TIME_OFFSET ( 1, 0, .AHEAD. ) ;
#197 = PERSON_AND_ORGANIZATION ( #160, #190 ) ;
#198 = CC_DESIGN_PERSON_AND_ORGANIZATION_ASSIGNMENT ( #168, #55, ( #109 ) ) ;
#199 = APPLICATION_CONTEXT ( 'configuration controlled 3d designs of mechanical parts and assemblies' ) ;
#200 = COORDINATED_UNIVERSAL_TIME_OFFSET ( 1, 0, .AHEAD. ) ;
#201 = CARTESIAN_POINT ( 'NONE',  ( 2.765253220363762122E-13, -9.699202649247039195E-15, 79.20000000000001705 ) ) ;
#202 = AXIS2_PLACEMENT_3D ( 'NONE', #23, #192, #64 ) ;
#203 = ADVANCED_FACE ( 'NONE', ( #145, #19 ), #52, .T. ) ;
ENDSEC;
END-ISO-10303-21;
