ISO-10303-21;
HEADER;
FILE_DESCRIPTION (( 'STEP AP203' ),
    '1' );
FILE_NAME ('372626.step',
    '2021-12-08T08:40:39',
    ( '' ),
    ( '' ),
    'SwSTEP 2.0',
    'SolidWorks 2019',
    '' );
FILE_SCHEMA (( 'CONFIG_CONTROL_DESIGN' ));
ENDSEC;

DATA;
#1 = DIRECTION ( 'NONE',  ( -3.491481338843133355E-15, 1.224646799147353207E-16, -1.000000000000000000 ) ) ;
#2 = AXIS2_PLACEMENT_3D ( 'NONE', #49, #34, #134 ) ;
#3 = CARTESIAN_POINT ( 'NONE',  ( 1.152188841818234133E-13, 2.999519565323705910E-32, 33.00000000000000000 ) ) ;
#4 = MECHANICAL_CONTEXT ( 'NONE', #154, 'mechanical' ) ;
#5 = SHAPE_DEFINITION_REPRESENTATION ( #120, #31 ) ;
#6 = AXIS2_PLACEMENT_3D ( 'NONE', #158, #131, #17 ) ;
#7 = ORIENTED_EDGE ( 'NONE', *, *, #16, .F. ) ;
#8 = CALENDAR_DATE ( 2021, 8, 12 ) ;
#9 = ORIENTED_EDGE ( 'NONE', *, *, #16, .T. ) ;
#10 = EDGE_LOOP ( 'NONE', ( #9 ) ) ;
#11 = FACE_OUTER_BOUND ( 'NONE', #176, .T. ) ;
#12 = AXIS2_PLACEMENT_3D ( 'NONE', #122, #172, #13 ) ;
#13 = DIRECTION ( 'NONE',  ( -4.275831445896958607E-31, -1.000000000000000000, -1.224646799147353207E-16 ) ) ;
#14 = VERTEX_POINT ( 'NONE', #179 ) ;
#15 = AXIS2_PLACEMENT_3D ( 'NONE', #28, #201, #95 ) ;
#16 = EDGE_CURVE ( 'NONE', #142, #142, #50, .T. ) ;
#17 = DIRECTION ( 'NONE',  ( -4.275831445896958607E-31, -1.000000000000000000, -1.224646799147353207E-16 ) ) ;
#18 = DIRECTION ( 'NONE',  ( 4.275831445896958607E-31, 1.000000000000000000, 1.224646799147353207E-16 ) ) ;
#19 = PRODUCT_DEFINITION ( 'UNKNOWN', '', #117, #112 ) ;
#20 = APPROVAL_PERSON_ORGANIZATION ( #102, #103, #39 ) ;
#21 = APPROVAL_DATE_TIME ( #124, #103 ) ;
#22 = DATE_TIME_ROLE ( 'classification_date' ) ;
#23 = MANIFOLD_SOLID_BREP ( 'Corps-Déplacer/Copier1[1]', #36 ) ;
#24 = LOCAL_TIME ( 9, 40, 39.00000000000000000, #56 ) ;
#25 = ORIENTED_EDGE ( 'NONE', *, *, #167, .T. ) ;
#26 = APPROVAL_PERSON_ORGANIZATION ( #136, #147, #196 ) ;
#27 = EDGE_LOOP ( 'NONE', ( #7 ) ) ;
#28 = CARTESIAN_POINT ( 'NONE',  ( 2.793185071074506684E-13, -9.797174393178826052E-15, 80.00000000000000000 ) ) ;
#29 = DIRECTION ( 'NONE',  ( 0.0000000000000000000, 1.000000000000000000, 0.0000000000000000000 ) ) ;
#30 = PLANE ( 'NONE',  #104 ) ;
#31 = ADVANCED_BREP_SHAPE_REPRESENTATION ( '372626', ( #23, #168, #182 ), #197 ) ;
#32 = PRODUCT ( '372626', '372626', '', ( #4 ) ) ;
#33 = DIRECTION ( 'NONE',  ( 4.275831445896958607E-31, 1.000000000000000000, 1.224646799147353207E-16 ) ) ;
#34 = DIRECTION ( 'NONE',  ( -3.491481338843133355E-15, 1.224646799147353207E-16, -1.000000000000000000 ) ) ;
#35 = VERTEX_POINT ( 'NONE', #193 ) ;
#36 = CLOSED_SHELL ( 'NONE', ( #63, #173, #152, #60 ) ) ;
#37 = DATE_AND_TIME ( #44, #82 ) ;
#38 = DIRECTION ( 'NONE',  ( 4.275831445896958607E-31, 1.000000000000000000, 1.224646799147353207E-16 ) ) ;
#39 = APPROVAL_ROLE ( '' ) ;
#40 = CIRCLE ( 'NONE', #171, 3.999999999999990674 ) ;
#41 = APPROVAL_DATE_TIME ( #37, #144 ) ;
#42 = PERSON_AND_ORGANIZATION ( #115, #94 ) ;
#43 = CC_DESIGN_PERSON_AND_ORGANIZATION_ASSIGNMENT ( #177, #97, ( #32 ) ) ;
#44 = CALENDAR_DATE ( 2021, 8, 12 ) ;
#45 = CC_DESIGN_PERSON_AND_ORGANIZATION_ASSIGNMENT ( #89, #139, ( #19 ) ) ;
#46 = ORIENTED_EDGE ( 'NONE', *, *, #58, .T. ) ;
#47 = CIRCLE ( 'NONE', #77, 4.000000000000002665 ) ;
#48 = CC_DESIGN_DATE_AND_TIME_ASSIGNMENT ( #121, #22, ( #141 ) ) ;
#49 = CARTESIAN_POINT ( 'NONE',  ( 0.0000000000000000000, 0.0000000000000000000, 0.0000000000000000000 ) ) ;
#50 = CIRCLE ( 'NONE', #15, 3.200000000000003286 ) ;
#51 = CARTESIAN_POINT ( 'NONE',  ( -1.282766372550154493E-30, 4.499338761231704644E-32, -3.673988912039226017E-16 ) ) ;
#52 = CARTESIAN_POINT ( 'NONE',  ( 1.152188841818234133E-13, -4.041334437186266200E-15, 33.00000000000000000 ) ) ;
#53 = CC_DESIGN_APPROVAL ( #144, ( #141 ) ) ;
#54 = ADVANCED_FACE ( 'NONE', ( #81 ), #84, .T. ) ;
#55 = PERSON_AND_ORGANIZATION_ROLE ( 'creator' ) ;
#56 = COORDINATED_UNIVERSAL_TIME_OFFSET ( 1, 0, .AHEAD. ) ;
#57 = LOCAL_TIME ( 9, 40, 39.00000000000000000, #105 ) ;
#58 = EDGE_CURVE ( 'NONE', #163, #163, #47, .T. ) ;
#59 = DATE_TIME_ROLE ( 'creation_date' ) ;
#60 = ADVANCED_FACE ( 'NONE', ( #178 ), #30, .F. ) ;
#61 = UNCERTAINTY_MEASURE_WITH_UNIT (LENGTH_MEASURE( 1.000000000000000082E-05 ), #83, 'distance_accuracy_value', 'NONE');
#62 = FACE_OUTER_BOUND ( 'NONE', #73, .T. ) ;
#63 = ADVANCED_FACE ( 'NONE', ( #11 ), #175, .F. ) ;
#64 = FACE_OUTER_BOUND ( 'NONE', #76, .T. ) ;
#65 = PRODUCT_RELATED_PRODUCT_CATEGORY ( 'detail', '', ( #32 ) ) ;
#66 = CIRCLE ( 'NONE', #100, 3.999999999999995559 ) ;
#67 = CARTESIAN_POINT ( 'NONE',  ( 2.793185071074506684E-13, -9.797174393178826052E-15, 80.00000000000000000 ) ) ;
#68 = DIRECTION ( 'NONE',  ( 0.0000000000000000000, 1.000000000000000000, 0.0000000000000000000 ) ) ;
#69 =( NAMED_UNIT ( * ) SI_UNIT ( $, .STERADIAN. ) SOLID_ANGLE_UNIT ( ) );
#70 = PLANE ( 'NONE',  #12 ) ;
#71 = COORDINATED_UNIVERSAL_TIME_OFFSET ( 1, 0, .AHEAD. ) ;
#72 = CIRCLE ( 'NONE', #111, 3.999999999999995559 ) ;
#73 = EDGE_LOOP ( 'NONE', ( #199 ) ) ;
#74 = PERSON_AND_ORGANIZATION_ROLE ( 'classification_officer' ) ;
#75 = EDGE_LOOP ( 'NONE', ( #106 ) ) ;
#76 = EDGE_LOOP ( 'NONE', ( #191 ) ) ;
#77 = AXIS2_PLACEMENT_3D ( 'NONE', #109, #192, #68 ) ;
#78 = CC_DESIGN_SECURITY_CLASSIFICATION ( #141, ( #117 ) ) ;
#79 = DIRECTION ( 'NONE',  ( 1.000000000000000000, 0.0000000000000000000, 0.0000000000000000000 ) ) ;
#80 = DIRECTION ( 'NONE',  ( 0.0000000000000000000, 1.000000000000000000, 0.0000000000000000000 ) ) ;
#81 = FACE_OUTER_BOUND ( 'NONE', #155, .T. ) ;
#82 = LOCAL_TIME ( 9, 40, 39.00000000000000000, #90 ) ;
#83 =( LENGTH_UNIT ( ) NAMED_UNIT ( * ) SI_UNIT ( .MILLI., .METRE. ) );
#84 = PLANE ( 'NONE',  #184 ) ;
#85 = CC_DESIGN_PERSON_AND_ORGANIZATION_ASSIGNMENT ( #166, #74, ( #141 ) ) ;
#86 = APPLICATION_PROTOCOL_DEFINITION ( 'international standard', 'config_control_design', 1994, #154 ) ;
#87 = COORDINATED_UNIVERSAL_TIME_OFFSET ( 1, 0, .AHEAD. ) ;
#88 = CC_DESIGN_PERSON_AND_ORGANIZATION_ASSIGNMENT ( #42, #55, ( #117 ) ) ;
#89 = PERSON_AND_ORGANIZATION ( #115, #94 ) ;
#90 = COORDINATED_UNIVERSAL_TIME_OFFSET ( 1, 0, .AHEAD. ) ;
#91 = DIRECTION ( 'NONE',  ( -3.491481338843133355E-15, 1.224646799147353207E-16, -1.000000000000000000 ) ) ;
#92 = CC_DESIGN_APPROVAL ( #103, ( #19 ) ) ;
#93 = ORIENTED_EDGE ( 'NONE', *, *, #162, .F. ) ;
#94 = ORGANIZATION ( 'UNSPECIFIED', 'UNSPECIFIED', '' ) ;
#95 = DIRECTION ( 'NONE',  ( 0.0000000000000000000, 1.000000000000000000, 0.0000000000000000000 ) ) ;
#96 = ADVANCED_FACE ( 'NONE', ( #62 ), #70, .F. ) ;
#97 = PERSON_AND_ORGANIZATION_ROLE ( 'design_owner' ) ;
#98 = FACE_BOUND ( 'NONE', #10, .T. ) ;
#99 = CARTESIAN_POINT ( 'NONE',  ( 2.793185071074506684E-13, 3.199999999999993072, 80.00000000000000000 ) ) ;
#100 = AXIS2_PLACEMENT_3D ( 'NONE', #143, #181, #29 ) ;
#101 = CARTESIAN_POINT ( 'NONE',  ( 4.275662058086250086E-31, 3.999999999999990674, 1.224598284550174978E-16 ) ) ;
#102 = PERSON_AND_ORGANIZATION ( #115, #94 ) ;
#103 = APPROVAL ( #127, 'UNSPECIFIED' ) ;
#104 = AXIS2_PLACEMENT_3D ( 'NONE', #156, #91, #38 ) ;
#105 = COORDINATED_UNIVERSAL_TIME_OFFSET ( 1, 0, .AHEAD. ) ;
#106 = ORIENTED_EDGE ( 'NONE', *, *, #58, .F. ) ;
#107 = EDGE_LOOP ( 'NONE', ( #157 ) ) ;
#108 = CLOSED_SHELL ( 'NONE', ( #96, #130, #54 ) ) ;
#109 = CARTESIAN_POINT ( 'NONE',  ( 2.765253220363762122E-13, -9.699202649247039195E-15, 79.20000000000001705 ) ) ;
#110 = CARTESIAN_POINT ( 'NONE',  ( 0.0000000000000000000, 0.0000000000000000000, 0.0000000000000000000 ) ) ;
#111 = AXIS2_PLACEMENT_3D ( 'NONE', #52, #146, #80 ) ;
#112 = DESIGN_CONTEXT ( 'detailed design', #190, 'design' ) ;
#113 = CARTESIAN_POINT ( 'NONE',  ( 2.765253220363762122E-13, 3.999999999999993339, 79.20000000000001705 ) ) ;
#114 = DIRECTION ( 'NONE',  ( -3.491481338843133355E-15, 1.224646799147353207E-16, -1.000000000000000000 ) ) ;
#115 = PERSON ( 'UNSPECIFIED', 'UNSPECIFIED', 'UNSPECIFIED', ('UNSPECIFIED'), ('UNSPECIFIED'), ('UNSPECIFIED') ) ;
#116 = FACE_OUTER_BOUND ( 'NONE', #107, .T. ) ;
#117 = PRODUCT_DEFINITION_FORMATION_WITH_SPECIFIED_SOURCE ( 'ANY', '', #32, .NOT_KNOWN. ) ;
#118 = FACE_OUTER_BOUND ( 'NONE', #129, .T. ) ;
#119 = DIRECTION ( 'NONE',  ( 3.491481338843133355E-15, -1.224646799147353207E-16, 1.000000000000000000 ) ) ;
#120 = PRODUCT_DEFINITION_SHAPE ( 'NONE', 'NONE',  #19 ) ;
#121 = DATE_AND_TIME ( #169, #57 ) ;
#122 = CARTESIAN_POINT ( 'NONE',  ( -6.413831862750772464E-31, 2.249669380615852322E-32, -1.836994456019613009E-16 ) ) ;
#123 = CALENDAR_DATE ( 2021, 8, 12 ) ;
#124 = DATE_AND_TIME ( #8, #125 ) ;
#125 = LOCAL_TIME ( 9, 40, 39.00000000000000000, #71 ) ;
#126 = DATE_AND_TIME ( #150, #24 ) ;
#127 = APPROVAL_STATUS ( 'not_yet_approved' ) ;
#128 = AXIS2_PLACEMENT_3D ( 'NONE', #67, #114, #133 ) ;
#129 = EDGE_LOOP ( 'NONE', ( #140 ) ) ;
#130 = ADVANCED_FACE ( 'NONE', ( #64, #116 ), #164, .T. ) ;
#131 = DIRECTION ( 'NONE',  ( 3.491481338843133355E-15, -1.224646799147353207E-16, 1.000000000000000000 ) ) ;
#132 = FACE_OUTER_BOUND ( 'NONE', #75, .T. ) ;
#133 = DIRECTION ( 'NONE',  ( 0.0000000000000000000, 1.000000000000000000, 0.0000000000000000000 ) ) ;
#134 = DIRECTION ( 'NONE',  ( 4.275831445896958607E-31, 1.000000000000000000, 1.224646799147353207E-16 ) ) ;
#135 = EDGE_CURVE ( 'NONE', #195, #195, #40, .T. ) ;
#136 = PERSON_AND_ORGANIZATION ( #115, #94 ) ;
#137 = SECURITY_CLASSIFICATION_LEVEL ( 'unclassified' ) ;
#138 = CONICAL_SURFACE ( 'NONE', #128, 3.200000000000003286, 0.7853981633974597143 ) ;
#139 = PERSON_AND_ORGANIZATION_ROLE ( 'creator' ) ;
#140 = ORIENTED_EDGE ( 'NONE', *, *, #167, .F. ) ;
#141 = SECURITY_CLASSIFICATION ( '', '', #137 ) ;
#142 = VERTEX_POINT ( 'NONE', #99 ) ;
#143 = CARTESIAN_POINT ( 'NONE',  ( 1.152188841818234133E-13, -4.041334437186266200E-15, 33.00000000000000000 ) ) ;
#144 = APPROVAL ( #153, 'UNSPECIFIED' ) ;
#145 = CC_DESIGN_APPROVAL ( #147, ( #117 ) ) ;
#146 = DIRECTION ( 'NONE',  ( -3.491481338843133355E-15, 1.224646799147353207E-16, -1.000000000000000000 ) ) ;
#147 = APPROVAL ( #185, 'UNSPECIFIED' ) ;
#148 = DIRECTION ( 'NONE',  ( 0.0000000000000000000, 0.0000000000000000000, 1.000000000000000000 ) ) ;
#149 = DIRECTION ( 'NONE',  ( -4.275831445896958607E-31, -1.000000000000000000, -1.224646799147353207E-16 ) ) ;
#150 = CALENDAR_DATE ( 2021, 8, 12 ) ;
#151 = EDGE_LOOP ( 'NONE', ( #46 ) ) ;
#152 = ADVANCED_FACE ( 'NONE', ( #132, #98 ), #138, .T. ) ;
#153 = APPROVAL_STATUS ( 'not_yet_approved' ) ;
#154 = APPLICATION_CONTEXT ( 'configuration controlled 3d designs of mechanical parts and assemblies' ) ;
#155 = EDGE_LOOP ( 'NONE', ( #93 ) ) ;
#156 = CARTESIAN_POINT ( 'NONE',  ( 2.793185071074506684E-13, 2.399615652258959583E-32, 80.00000000000000000 ) ) ;
#157 = ORIENTED_EDGE ( 'NONE', *, *, #162, .T. ) ;
#158 = CARTESIAN_POINT ( 'NONE',  ( 1.152188841818234133E-13, 2.999519565323705910E-32, 33.00000000000000000 ) ) ;
#159 = CC_DESIGN_PERSON_AND_ORGANIZATION_ASSIGNMENT ( #187, #170, ( #117 ) ) ;
#160 = APPLICATION_PROTOCOL_DEFINITION ( 'international standard', 'config_control_design', 1994, #190 ) ;
#161 = DIRECTION ( 'NONE',  ( -3.491481338843133355E-15, 1.224646799147353207E-16, -1.000000000000000000 ) ) ;
#162 = EDGE_CURVE ( 'NONE', #35, #35, #72, .T. ) ;
#163 = VERTEX_POINT ( 'NONE', #113 ) ;
#164 = CYLINDRICAL_SURFACE ( 'NONE', #189, 3.999999999999993339 ) ;
#165 = CARTESIAN_POINT ( 'NONE',  ( 0.0000000000000000000, 0.0000000000000000000, 0.0000000000000000000 ) ) ;
#166 = PERSON_AND_ORGANIZATION ( #115, #94 ) ;
#167 = EDGE_CURVE ( 'NONE', #14, #14, #66, .T. ) ;
#168 = MANIFOLD_SOLID_BREP ( 'Corps-Déplacer/Copier1[2]', #108 ) ;
#169 = CALENDAR_DATE ( 2021, 8, 12 ) ;
#170 = PERSON_AND_ORGANIZATION_ROLE ( 'design_supplier' ) ;
#171 = AXIS2_PLACEMENT_3D ( 'NONE', #51, #1, #18 ) ;
#172 = DIRECTION ( 'NONE',  ( 3.491481338843133355E-15, -1.224646799147353207E-16, 1.000000000000000000 ) ) ;
#173 = ADVANCED_FACE ( 'NONE', ( #118, #194 ), #180, .T. ) ;
#174 = APPROVAL_PERSON_ORGANIZATION ( #200, #144, #183 ) ;
#175 = PLANE ( 'NONE',  #6 ) ;
#176 = EDGE_LOOP ( 'NONE', ( #25 ) ) ;
#177 = PERSON_AND_ORGANIZATION ( #115, #94 ) ;
#178 = FACE_OUTER_BOUND ( 'NONE', #27, .T. ) ;
#179 = CARTESIAN_POINT ( 'NONE',  ( 1.152188841818234133E-13, 3.999999999999991562, 33.00000000000000000 ) ) ;
#180 = CYLINDRICAL_SURFACE ( 'NONE', #2, 3.999999999999999112 ) ;
#181 = DIRECTION ( 'NONE',  ( -3.491481338843133355E-15, 1.224646799147353207E-16, -1.000000000000000000 ) ) ;
#182 = AXIS2_PLACEMENT_3D ( 'NONE', #110, #148, #79 ) ;
#183 = APPROVAL_ROLE ( '' ) ;
#184 = AXIS2_PLACEMENT_3D ( 'NONE', #3, #119, #149 ) ;
#185 = APPROVAL_STATUS ( 'not_yet_approved' ) ;
#186 = APPROVAL_DATE_TIME ( #126, #147 ) ;
#187 = PERSON_AND_ORGANIZATION ( #115, #94 ) ;
#188 = CC_DESIGN_DATE_AND_TIME_ASSIGNMENT ( #198, #59, ( #19 ) ) ;
#189 = AXIS2_PLACEMENT_3D ( 'NONE', #165, #161, #33 ) ;
#190 = APPLICATION_CONTEXT ( 'configuration controlled 3d designs of mechanical parts and assemblies' ) ;
#191 = ORIENTED_EDGE ( 'NONE', *, *, #135, .F. ) ;
#192 = DIRECTION ( 'NONE',  ( -3.491481338843133355E-15, 1.224646799147353207E-16, -1.000000000000000000 ) ) ;
#193 = CARTESIAN_POINT ( 'NONE',  ( 1.152188841818234133E-13, 3.999999999999991562, 33.00000000000000000 ) ) ;
#194 = FACE_OUTER_BOUND ( 'NONE', #151, .T. ) ;
#195 = VERTEX_POINT ( 'NONE', #101 ) ;
#196 = APPROVAL_ROLE ( '' ) ;
#197 =( GEOMETRIC_REPRESENTATION_CONTEXT ( 3 ) GLOBAL_UNCERTAINTY_ASSIGNED_CONTEXT ( ( #61 ) ) GLOBAL_UNIT_ASSIGNED_CONTEXT ( ( #83, #203, #69 ) ) REPRESENTATION_CONTEXT ( 'NONE', 'WORKASPACE' ) );
#198 = DATE_AND_TIME ( #123, #202 ) ;
#199 = ORIENTED_EDGE ( 'NONE', *, *, #135, .T. ) ;
#200 = PERSON_AND_ORGANIZATION ( #115, #94 ) ;
#201 = DIRECTION ( 'NONE',  ( -3.491481338843133355E-15, 1.224646799147353207E-16, -1.000000000000000000 ) ) ;
#202 = LOCAL_TIME ( 9, 40, 39.00000000000000000, #87 ) ;
#203 =( NAMED_UNIT ( * ) PLANE_ANGLE_UNIT ( ) SI_UNIT ( $, .RADIAN. ) );
ENDSEC;
END-ISO-10303-21;
